rock
 
|tablatures   |lyrics   |discussion forums   |more tabs @ XGuitar.com

AC DC tabs

Back In Black bass tab

Back In Black
Tabbed by Wes Midkiff 

Verse:                                                              end Verse
G|----------------------------------------------------------------------|
D|----------------------------------------------------------------------|
A|------5-5-5-------------------5-5-5-------------2----2-0--2-1--2-2----|
E|-0-------------5-5-5----0-------------5-5-5-------4-------------------|

Chorus:
G|-------------------------------------------------|
D|-------------------------------------------------|
A|---------------------------5-----------5---------|
E|-5-0-7-5-7---5-0-7-5-7---3---5-3-5---3---5-3-5---|

                                          End Chorus
G|-------------------------------------------------|
D|-------------------------------------------------|
A|----------------------------------5-5-5----------|
E|-5-0-7-5-7---5-0-7-5-7---3-3-3-3-----------------|

During solo:
G|------------------------------------------------------------------------------|
D|-------------------------------------------------------------------------(3x)-|
A|-------5-5-5--------------------------------5-5-5-----------------------------|
E|-0---------------5-5-5----0-0--0-0--0-0--0------------5-5-5----0-5--0--5------|

                                                                        End Solo
G|----------------------------------------------------------------------------|
D|----------------------------------------------------------------------------|
A|-------5-5-5--------------------------------5---5---------------------------|
E|-0---------------5-5-5----0-0--0-0--0-0--0------------5---5----0-5--0--5----|

Interlude:  
Play open-E till Angus changes to a scale in A then you play an-open A till 
he changes back to an open-E then play the open-E till the chorus starts up.

Ending (Live version)
G|--------------------------------------------------------------------------|
D|--------------------------------------------------------------------------|
A|---------5--5--5----------------------------------------------------------|
E|-0---------------------5--5--5--------5tremolopicking--0tremolopicking--0-|
   Ring----      Ring----      Ring----
  development and support by
dmitry ivanov