rock
 
|tablatures   |lyrics   |discussion forums   |more tabs @ XGuitar.com

AC DC tabs

Baby Please Dont Go bass tab

THEM - "Baby Please Don't Go" - Bass Tab

common time(4/4)
standard tuning(EADG)

MAIN RIFF:

|---------------|
|*-3-3-5-3-3-5-*|
|*-------------*|
|---------------|
   1 & 2 3 & 4

FILL 1:

|-5-3-----|
|-----5-3-|
|---------|
|---------|
  1 2 3 4

INSTRUMENTAL BIT:

|-------------|
|*-3-3-5-3-5-*|
|*-----------*|
|-------------|
   1 & 2 3 4

FILL 2:

|-------5-3-|-------3-|
|-3-3-5-----|-5-3-5---|
|-----------|---------|
|-----------|---------|
  1 & 2 3 4   1 2 3 4

By: Johari Taylor
E-mail: viking@powerup.com.au
  development and support by
dmitry ivanov