rock
 
|tablatures   |lyrics   |discussion forums   |more tabs @ XGuitar.com

AC DC tabs

Are You Ready bass tab

AC/DC - Are You Ready? (Young/Young)
The Razor's Edge (1990)
Transcripted By Alexander Richardson

Intro

   /------8X------\\
G [----------------]
D [----------------]
A [----------------]
E [----------------]
  [1 + 2 + 3 + 4 + ]


G [----------------|----------------|----------------|----------------]
D [----------------|3---------------|5---------------|----------------]
A [5---------------|----------------|----------------|5---------------]
E [----------------|----------------|----------------|----------------]
  [1 + 2 + 3 + 4 + |1 + 2 + 3 + 4 + |1 + 2 + 3 + 4 + |1 + 2 + 3 + 4 + ]

G [----------------|----------------]
D [----------------|----------------]
A [5---------------|----------------]
E [----------------|----------------]
  [1 + 2 + 3 + 4 + |1 + 2 + 3 + 4 + ]


1st Verse

   /---------------8x--------------\\
G [----------------|----------------]
D [----------------|----3-----------]
A [5-5-5-3-3-5---5-|--------5---3---]
E [----------------|----------------]
  [1 + 2 + 3 + 4 + |1 + 2 + 3 + 4 + ]

Pre-Chorus

   /--------------------------------2x-------------------------------\\
G [----------------|----------------|----------------|----------------]
D [----------------|3---------------|5---------------|----------------]
A [5---------------|----------------|----------------|5---------------]
E [----------------|----------------|----------------|----------------]
  [1 + 2 + 3 + 4 + |1 + 2 + 3 + 4 + |1 + 2 + 3 + 4 + |1 + 2 + 3 + 4 + ]

Chours

   /--------------------------------2x-------------------------------\\
G [----------------|----------------|----------------|----------------]
D [----------------|----------------|----------------|----------------]
A [5-5-5-3-3-5-5---|3-3-3-2-2-3-----|2-2-2-0-0-2-2---|3-3-3-2-2-3-----]
E [----------------|----------------|----------------|----------------]
  [1 + 2 + 3 + 4 + |1 + 2 + 3 + 4 + |1 + 2 + 3 + 4 + |1 + 2 + 3 + 4 + ]

G [----------------]
D [----------------]
A [----------------]
E [----------------]
  [1 + 2 + 3 + 4 + ]

2nd Verse

   /---------------6x--------------\\
G [----------------|----------------]
D [----------------|----3-----------]
A [5-5-5-3-3-5---5-|--------5---3---]
E [----------------|----------------]
  [1 + 2 + 3 + 4 + |1 + 2 + 3 + 4 + ]

Pre-Chorus

G [----------------|----------------|----------------|----------------]
D [----------------|3---------------|5---------------|----------------]
A [5---------------|----------------|----------------|5---------------]
E [----------------|----------------|----------------|----------------]
  [1 + 2 + 3 + 4 + |1 + 2 + 3 + 4 + |1 + 2 + 3 + 4 + |1 + 2 + 3 + 4 + ]

Chours

   /--------------------------------2x-------------------------------\\
G [----------------|----------------|----------------|----------------]
D [----------------|----------------|----------------|----------------]
A [5-5-5-3-3-5-5---|3-3-3-2-2-3-----|2-2-2-0-0-2-2---|3-3-3-2-2-3-----]
E [----------------|----------------|----------------|----------------]
  [1 + 2 + 3 + 4 + |1 + 2 + 3 + 4 + |1 + 2 + 3 + 4 + |1 + 2 + 3 + 4 + ]

G [----------------|----------------]
D [----------------|----------------]
A [----------------|5\\--------------]
E [----------------|----------------]
  [1 + 2 + 3 + 4 + |1 + 2 + 3 + 4 + ]

Guitar Solo

   /---------------4x--------------\\
G [----------------|----------------]
D [----------------|----3-----------]
A [5-5-5-3-3-5---5-|--------5---3---]
E [----------------|----------------]
  [1 + 2 + 3 + 4 + |1 + 2 + 3 + 4 + ]

   /--------------------------------2x-------------------------------\\
G [----------------|----------------|----------------|----------------]
D [----------------|3---------------|5---------------|----------------]
A [5---------------|----------------|----------------|5---------------]
E [----------------|----------------|----------------|----------------]
  [1 + 2 + 3 + 4 + |1 + 2 + 3 + 4 + |1 + 2 + 3 + 4 + |1 + 2 + 3 + 4 + ]

Chorus

G [----------------|----------------|----------------|----------------]
D [----------------|----------------|----------------|----------------]
A [5-5-5-3-3-5-5---|3-3-3-2-2-3-----|2-2-2-0-0-2-2---|3-3-3-2-2-3-----]
E [----------------|----------------|----------------|----------------]
  [1 + 2 + 3 + 4 + |1 + 2 + 3 + 4 + |1 + 2 + 3 + 4 + |1 + 2 + 3 + 4 + ]

   /---------------7x--------------\\                  /-Gets--Slower-\\
G [----------------|----------------|----------------|----------------]
D [----------------|----3-----------|----------------|----------------]
A [5-5-5-3-3-5-5-5-|--------5---3---|----------------|5---3---2---0---]
E [----------------|----------------|----------------|----------------]
  [1 + 2 + 3 + 4 + |1 + 2 + 3 + 4 + |1 + 2 + 3 + 4 + |1 + 2 + 3 + 4 + ]

G [----------------]
D [----------------]
A [------------5---]
E [3---------------]
  [1 + 2 + 3 + 4 + ]
  development and support by
dmitry ivanov