rock
 
|tablatures   |lyrics   |discussion forums   |more tabs @ XGuitar.com

311 tabs

You Wouldn't Believe bass tab

From: p-nutt 
Artist:	311
Album:	from chaos
Song:	you wouldn't believe

bass tab

chorus:
g:----------------------------------|
d:----------------------------------|
a:---------------------------0-3-0-3|
e:----------------------------------|
b:22-2-2-2-0-0-000-2-222-0-0--------|

riff2:
g:-----------------------------------|
d:-----------------------------------|
a:-----------------------------------|
e:------------------0-0-0-2-2-2-3-3-3|
b:0-0-0-2-2-2-3-3-3------------------|

bass solo:
g:------2-4-5-4-22-4-2-2p0-------2-4-5-4-22-4-2//x77-x77|
d:0-4-5--------------------0-4-5------------------------|
a:------------------------------------------------------|
e:------------------------------------------------------|
b:------------------------------------------------------|

this is a really short tab just listin to the song for timming.
  development and support by
dmitry ivanov