rock
 
|tablatures   |lyrics   |discussion forums   |more tabs @ XGuitar.com

311 tabs

You Get Worked bass tab

Song: You Get Worked
Band: 311
Album: From Chaos
Tabbed By: Joe Bond and John Bond

Intro

G|--------------|
D|--------------|
A|--------------|
E|------5-3-1-0-|


Riff 1

G|---------------------|                          
D|---------------------|                          
A|---------------------|                          
E|-5-3-5---5-3-5-3-5---| play 3 times, then play: 


G|------------------------|                          
D|------------------------|                          
A|------------------------|                          
E|-5-3-5---5-3-0-0-0--0-0-| 


Riff 2

G|---------------------------------|---------------------------------|
D|---------------------------------|---------------------------------|
A|---------------------------------|---------------------------------|
E|-0-0-0-0-----0-0-0-0-----0-0-0---|-0-0-0-0-----0-0-0-0-----0-0-0-0-|

G|---------------------------------|---------------------------------|
D|---------------------------------|---------------------------------|
A|---------------------------------|---------------------------------|
E|-0-0-0-0-----0-0-0-0-----0-0-0---|-0-0-0-0-----0-0-0-0-----0-------|


Riff 3

G|---------------------------------|-----------------------------------|
D|---------------------------------|-----------------------------------|
A|---------------------------------|-----------------------------------|
E|-0-0-0-0-----0-0-0-0-----0-0-0---|-0-0-0-0-----0-0-0-0-----0-0-0-0-0-|

G|---------------------------------|-----------------------------------|
D|---------------------------------|-----------------------------------|
A|---------------------------------|-----------------------------------|
E|-0-0-0-0-----0-0-0-0-----0-0-0---|-0-0-0-0-----0-0-0-0-----0-0-0-0-0-|

Riff 2 and 3 are nearly identical on the bass.  The only difference is that,  
in Riff 3 there is an extra 16th note every second measure in Riff 3.  Basically, 
if you play the same riff, nobody will be able to tell.

Riff 4

G|--------------------|--------------------|--------------------|
D|--------------------|--------------------|--------------------|
A|---------3-4-6------|---------3-4-6------|---------3-4-6------|
E|-5-4---4-------4--4-|-5-4---4-------4--4-|-5-4---4-------4--4-|

G|--------------------|
D|--------------------|
A|---------3-4-6------|
E|-5-4---4-------2--2-|

G|--------------------|--------------------|--------------------|
D|--------------------|--------------------|--------------------|
A|---------3-4-6------|---------3-4-6------|---------3-4-6------|
E|-5-4---4-------4--4-|-5-4---4-------4--4-|-5-4---4-------4--4-|

G|-------------------|
D|----------------4--|
A|---------3-4-6-----|
E|-5-4---4-----------|


Riff 5

G|-----------------|-----------------|-----------------|-----------------|
D|-----------------|-----------------|-----------------|-----------------|
A|-6--6--6--6--6-6-|-6--6--6--6--6-6-|-6--6--6--6--6-6-|-6--6--6--6--6-6-|
E|-----------------|-----------------|-----------------|-----------------|


End

G|----------------|
D|----------------|
A|----------------|
E|-5-4------------|

Song Structure

rest 3 measures
Intro
Riff 1 (2 times)
Riff 2 
Riff 1
Riff 3 (2 times)
Riff 1
Riff 2
Riff 4
Riff 1
Riff 3
Riff 4
Riff 5
Riff 4 (play only first 1/2)
End
  development and support by
dmitry ivanov