rock
 
|tablatures   |lyrics   |discussion forums   |more tabs @ XGuitar.com

311 tabs

(White Man) in Hammersmith Palais guitar tab

'(White Man) in Hammersmith Palais'
Performed by 311
From the album "Burning London: The Clash Tribute" on Epic Records
Music by:  J. Strummer & M. Jones
Lyrics by:  J. Strummer & M. Jones
---------------
Tabbed by: Adam Wood (adam311@hotmail.com)
The 311 Guitar Archive -- http://chromosome.colorado.edu/311archive/


Intro:
======
[Guitar 1:]
   A5             E5             G5
1:-------------------------------------------------------
2:-------------------------------------------------------
3:----------------9-9-9-9--9-9---12-12--12--12-12-12--12-
4:-7-7-7-7--7-7---9-9-9-9--9-9---12-12--12--12-12-12--12-
5:-7-7-7-7--7-7---7-7-7-7--7-7---10-10--10--10-10-10--10-
6:-5-5-5-5--5-5------------------------------------------

   A5                        G5                       N.C.
1:------------------------------------------------------------------
2:------------------------------------------------------------------
3:-14-14--14--14-14-14--14---12-12--12--12-12-12--12--12-12-12-\-14-
4:-14-14--14--14-14-14--14---12-12--12--12-12-12--12----------------
5:-12-12--12--12-12-12--12---10-10--10--10-10-10--10----------------
6:------------------------------------------------------------------

[Guitar 2:]
Same as above except the G5 and A5 are played one octave down:
   G5         A5
  ---        ---
  ---        ---
  ---   &    ---
  -5-        -7-
  -5-        -7-
  -3-        -5-

Verse:
======
   A     E     C#    D     A     E     C#    D
1:-5-5---4-4---1-1---2-2---5-5---4-4---1-1---2-2-
2:-5-5---5-5---2-2---3-3---5-5---5-5---2-2---3-3-
3:-7-7---4-4---1-1---2-2---7-7---4-4---1-1---2-2-
4:-----------------------------------------------
5:-----------------------------------------------
6:-----------------------------------------------

   A     E     F#m     D     A     E     A
1:-5-5---4-4----9--9---5-5---5-5---7-7---5-5-5-5-
2:-5-5---5-5---10-10---7-7---5-5---9-9---5-5-5-5-
3:-7-7---4-4---11-11---7-7---7-7---9-9---7-7-7-7-
4:-----------------------------------------------
5:-----------------------------------------------
6:-----------------------------------------------

Between Verse:
==============
   A5         E5 A5         D5 A5         E5 A5
1:-----------------------------------------------------
2:-----------------------------------------------------
3:------------9-------------7-------------9------------
4:-7-7-7-7-7--9--7-7-7-7-7--7--7-7-7-7-7--9--7-7-7-7-7-
5:-7-7-7-7-7--7--7-7-7-7-7--5--7-7-7-7-7--7--7-7-7-7-7-
6:-5-5-5-5-5-----5-5-5-5-5-----5-5-5-5-5-----5-5-5-5-5-

Fill:
=====
   N.C.
1:----------------
2:----------------
3:----------------
4:--------------7-
5:------4-5--7----
6:-4-5------------

Solo:
=====
[Unknown as of now...]

Ending I:
=========
[Guitar 1:]
   A5       E5       C#5      D5
1:------------------------------------
2:------------------------------------
3:----------9-9-9-9--6-6-6-6--7-7-7-7-
4:-7-7-7-7--9-9-9-9--6-6-6-6--7-7-7-7-
5:-7-7-7-7--7-7-7-7--4-4-4-4--5-5-5-5-
6:-5-5-5-5----------------------------

   A5       E5       C#5      D5
1:------------------------------------
2:------------------------------------
3:----------9-9-9-9--6-6-6-6--7-7-7-7-
4:-7-7-7-7--9-9-9-9--6-6-6-6--7-7-7-7-
5:-7-7-7-7--7-7-7-7--4-4-4-4--5-5-5-5-
6:-5-5-5-5----------------------------

   A5       E5       F#5          D5       A5       E5       A5
1:-------------------------------------------------------------------
2:-------------------------------------------------------------------
3:----------9-9-9-9--10-10-10-10--7-7-7-7-----------9-9-9-9----------
4:-7-7-7-7--9-9-9-9--10-10-10-10--7-7-7-7--7-7-7-7--9-9-9-9--7-7-7-7-
5:-7-7-7-7--7-7-7-7---9--9--9--9--5-5-5-5--7-7-7-7--7-7-7-7--7-7-7-7-
6:-5-5-5-5---------------------------------5-5-5-5-----------5-5-5-5-

[Guitar 2:]
Same as above except E is played one octave lower:
   E5
  ---
  ---
  ---
  -2-
  -2-
  -0-

Ending II:
==========
[Unknown...]

Ending III:
===========
   A5       E5 A5
1:---------------------
2:---------------------
3:----------9----------
4:-7-7-7-7--9--7-7-7-7-
5:-7-7-7-7--7--7-7-7-7-
6:-5-5-5-5-----5-5-5-5-


Lyrics (No Song Structure yet):
===============================
Midnight to six, man
for the first time from Jamaica
Dillinger and Leroy Smart
Delroy Wilson, cool operator
Ken Boothe, U.K. pop reggae
with backing bands sound systems.
If they got anything to say,
there's many black ears here to listen

But it was Four Tops all night
With encores from stage right,
charges from the base knives to the treble
But on stage they ain't got no roots, rock, rebel.
On stage they ain't got no roots, rock, rebel.

Jonesin' won't get you anywhere
Foolin with a gun
The British Army is waiting out there
An' it weighs fifteen hundred tons.
White youth, black youth,
Better find another solution.
Why not phone up Robin Hood
And ask him for some wealth distribution

Punk rockers - L.A>
They won't notice anyway
They're all too busy fighting
For a good place under the lighting
The new groups are not concerned
With what there is to be learned.
They got Burton suits, huh, you think it's funny
Turning rebelion into money

All over people changing their votes
Along with their overcoats
If Adolf Hitler flew in today
They'd send a limosine anyway
I'm the all-night, drug prowling wolf
Who looks so sick in the sun.
I'm the white man in the Palais

Who goes looking for fun
I'm only looking for fun
Oh, please mister, just leave me alone
Cause I'm only looking for fun
Looking looking looking for fun
Looking looking looking for fun
  development and support by
dmitry ivanov