rock
 
|tablatures   |lyrics   |discussion forums   |more tabs @ XGuitar.com

311 tabs

We Do It Like This guitar tab

'We Do It Like This'
Performed by 311
A Studio Outtake from the "From Chaos" Album
Music by:  [Unknown]
Lyrics by:  [Unknown]
(c) 2000/2001 Hydroponic Music BMI
---------------
Tabbed by: Ryan Abts (PhishHippo@aol.com)
Additions/Corrections by: Michael Slusarz (slusarz@bigworm.colorado.edu)
The 311 Guitar Archive -- http://bigworm.colorado.edu/311archive/


Riff 1 (w/Distortion and Octaver):
==================================
   N.C.
e:-----------------------
B:-----------------------
G:-----------------------
D:-----------------------
A:---4---4-------4-----4- 
E:-4---3---2---2---3-4--- 
   | P.M.|     | P.M.|

Chorus (w/Distortion):
======================
   (C#)
e:-------
B:-------
G:-6--6b-
D:-------
A:-4--4b-
E:-------

Riff 2 (w/Distortion):
======================
   N.C.
e:------------------------------------------- 
B:------------------------------------------- 
G:-6h7p6h7p6h7p6h7p6-----6h7p6h7p6h7p6h7p6--- 
D:-------------------7---------------------7- 
A:------------------------------------------- 
E:------------------------------------------- 

   N.C.
e:---------------------------------- 
B:---------------------------------- 
G:-6h7p6h7p6h7p6h7p6-----6-7-9-7-6b- 
D:-------------------7-------------- 
A:---------------------------------- 
E:---------------------------------- 

Bridge (w/Distortion & Octaver):
================================
   N.C.
e:--------------------------------------- 
B:--------------------------------------- 
G:--------------------------------------- 
D:--------------------------------------- 
A:------------------4------------------4- 
E:-4--3--2----2--3-------4--3--2----2---- 


Song Structure/Lyrics:
======================
---> Drum Intro
---> Play Riff 1 over:
---> Play Chorus over:
---> Play Riff 1 over:
---> Play Chorus over:
---> Play Riff 2 over:
---> Play Bridge (x1)
---> Play Riff 1 over:
---> Play Chorus over:
---> Play Riff 2 over:
---> Play Chorus over:
  development and support by
dmitry ivanov