rock
 
|tablatures   |lyrics   |discussion forums   |more tabs @ XGuitar.com

311 tabs

Wake Your Mind Up guitar tab

'Wake Your Mind Up'
Performed by 311
From the album "From Chaos" on Volcano Records
Music by:  C. Sexton & A. Wills
Lyrics by:  N. Hexum, W. Adams & T. Hardson
(c) 2001 Hydroponic Music/will.i.am publishing/Bridges in Babylon/EMI Blackwood
         Music Inc. BMI
---------------
Tabbed by: Tom Raimondo (pedo_311@hotmail.com)
Additions/Corrections by: Jared Liljenquist (jlelroy36@juno.com)
                          Christian Braithwaite (chrisb52@juno.com)
                          Michael Slusarz (slusarz@bigworm.colorado.edu)
The 311 Guitar Archive -- http://bigworm.colorado.edu/311archive/


Riff 1: 
======= 
   N.C.
e:----------
B:----------
G:----------
D:----------
A:-4----4-4-
E:---4------

Riff 2:
=======
   C#5         G#5   B5        A5
e:---------------------------------------------
B:---------------------------------------------
G:---------------------------------------------
D:-6-6-6-6-6-----------------------------------
A:-4-4-4-4-4---6-6---9-9-9-9---7---7-7-7-7-7-7-
E:-------------4-4---7-7-7-7---5---5-5-5-5-5-5-

Riff 3:
=======
   N.C.
e:------------------------------------
B:------------------------------------
G:------------------------------------
D:------------------------------------
A:--------------2h3p2---2-2-------3-2-
E:-2--2-2-2-3-5-------5-----5-5-5-----

Riff 4:
=======
   N.C.
e:--------------------------------------------
B:--------------------------------------------
G:--------------------------------------------
D:----------------------------------------0h2-
A:-------------2h3p2p0--2-0-2-0-3-2-0-2-0-----
E:-2--2-2-3-5---------------------------------

Riff 5: 
======= 
   N.C. 
e:--------------------- 
B:--------------------- 
G:--------------------- 
D:-----------------0h2- 
A:-0-2-0-3-2-0-2-0----- 
E:---------------------

Bridge:
=======
   E               E7sus4  E
e:-------------------------------
B:-------------------------------
G:-1-1-1---1-1-1---2-2-2---1-1-1-
D:-2-2-2---2-2-2---0-0-0---2-2-2-
A:-2-2-2---2-2-2---2-2-2---2-2-2-
E:-0-0-0---0-0-0---0-0-0---0-0-0-

Riff 6:
=======
   N.C
e:-----------------------------------------------------
B:-----------------------------------------------------
G:-----------------------------------------------------
D:-2h3p2---2------------------2h3p2---2----------------
A:-------3---3-2--2-3---------------3---3-2-2----2-----
E:--------------------3-2-0--------------------3---3-2-

This riff is played in two different styles, but with exactly the same
notes. Just adjust for the bit after the bass solo and then settle into the
groove.

-- or --

   N.C.
e:---------------------------------------------
B:---------------------------------------------
G:---------------------------------------------
D:-1h2-2---2-----------------1h2-2---2---------
A:-------3---3-2-------------------3---3-------
E:---------------3-3-3-2--0--------------3-3-2-

Solo:
=====
Not bloody likely.

Ending:
=======
   C#5 G#5 C#5
e:-----------------
B:-----------------
G:-----------------
D:-(6)-----(6)-(6)-
A:--4--(6)--4---4--
E:------4----------


Lyrics/Song Structure:
======================
---> Play Riff 1 (x4)
---> Play Riff 1 over:
Nick & SA:
---> Play Riff 2 over:
Nick:
SA:
Nick:
SA:
Nick & SA:
---> Play Riff 1 over:
Nick & SA:
---> Play Riff 2 over:
Nick:
SA:
Nick:
SA:
---> Play Riff 3 over:
Nick:
SA:
Nick:
SA:
Nick:
SA:
Nick:
SA:
---> Play Riff 1 over:
Nick & SA:
---> Play Riff 2 over:
Nick:
SA:
Nick:
SA:
---> Play Riff 3 over:
Nick:
SA:
Nick:
SA:
Nick:
---> Play Riff 4 over:
Nick:
---> Play Riff 5 over:
Nick:
---> Play Bridge (x1)
---> Bass Solo (No guitar)
---> Play Riff 6 (x2)
---> Play Riff 6 over Solo
---> Play Ending over:
Nick & SA:
  development and support by
dmitry ivanov