rock
 
|tablatures   |lyrics   |discussion forums   |more tabs @ XGuitar.com

311 tabs

Use Of Time bass tab

'Use of Time' -- Bass Tab
Performed by 311
From the album "Transistor" on Capricorn/Mercury Records
Music by:  N. Hexum
Lyrics by:  N. Hexum
(c) 1997 Hydroponic Music BMI
---------------
Tabbed by: Justin Reynolds (illihexill@aol.com)
The 311 Guitar Archive -- http://chromosome.colorado.edu/311archive/


Main Riff:
==========

G:-------------------------------
D:-------------------------------
A:-3-------3---------------------
E:---------------------0-------0-
B:-------------------------------

'But the trying again...':
==========================

G:-----------------
D:----2--5---------
A:-3-------3---3---
E:-----------3---3-
B:-----------------

Walking Fill:
=============

G:---------
D:---------
A:---------
E:-0-1-2-3-
B:---------
  development and support by
dmitry ivanov