rock
 
|tablatures   |lyrics   |discussion forums   |more tabs @ XGuitar.com

311 tabs

Uncalm guitar tab

Artist: 311
Title: Uncalm
Album: From Chaos
Released: June 19, 2001
Guitarist: Tim Mahoney
Tab Author: Dirk Lithium
Contact Info...
E-Mail: stridersquall@hotmail.com | ICQ#: 33312210

Tuning - Standard [E A D G B E]

Intro
Clean, No Distortion
"Uncalm, uncalm..."
E|-------------------------------------------------------------------
B|-------------------------------------------------------------------
G|-------------------------------------------------------------------
D|-------------------------------------------------------------------
A|-------0-2------2--3--2-----2-----------0-2------2--3--------------
E|-2--4-------0------------0-----0--2--4-------0---------0--2--------

Verses
Light Distortion
"Listen to the drummer, just listen to the strings..."
E|-------------------------------------------------------------------
B|-------------------------------------------------------------------
G|---------------6-6-------------------------------------------------
D|-7-7-7-7-7-7-7-------7-7-7-7-7-7-7-6-6-----------------------------
A|-< palm mute >-------< palm mute >---------------------------------
E|-------------------------------------------------------------------

Pre Chorus
Medium Distortion
"You and me on an endless walk..."
E|-------------------------------------------------------------------
B|-------------------------------------------------------------------
G|---------------6-6-------------------------------------------------
D|-7-7-7-7-7-7-7-6-6---7-7-7-7-7-7-7-6-6-----------------------------
A|-7-7-7-7-7-7-7-4-4---7-7-7-7-7-7-7-6-6-----------------------------
E|-5-5-5-5-5-5-5-------5-5-5-5-5-5-5-4-4-----------------------------
   < palm mute >       < palm mute >

Chorus
Medium Distortion
E|-------------------------------------------------------------------
B|-------------------------------------------------------------------
G|-------------------------------------------------------------------
D|-------------------------------------------------------------------
A|-4-4-4-------4-4-4------4-4-4--------------------------------------
E|-------5-4---------5-4--------5-4-4-2-4-5-4-2-4--------------------

E|-------------------------------------------------------------------
B|-------------------------------------------------------------------
G|-------------------------------------------------------------------
D|-------------------------------------------------------------------
A|-4-4-4------4-4-4-4------4-4-4----------------4--------------------
E|-------5-4---------5-4--------5-4-4-2-4-5-4-2----------------------

End
E|-2-
B|-2-
G|-2-
D|-4-
A|-4-
E|-2-
Let it ring out.


Song Setup/Lyrics:
Intro
Verse 1
Pre-Chorus
Chorus
Verse 2
Pre-Chorus
Chorus
End

(Intro)
Uncalm, uncalm
Uncalm
(Verse 1)
Listen to the drummer, just listen to the strings
Listen to the DJ just rippin his things
Once I get a message from you I get a legend
My mind's racing but you know I'm not ready
For you, baby not many things trickle through
We are back in your teenage bedroom
The door leads to our honeymoon (?)
For you
(Pre-Chorus)
You on me on an endless walk
Embarkin on a journey that I never thought
Would happen to me so effortlessly
Sparks flying, your laugh to me's a symphony
Spring, what a little moonlight can do
See the summer sun is on you
All the while we come to see the new you
I feel blue
(Chorus)
[I have no idea what he says here]
(Verse 2)
You make me feel uncalm and I think I like it
Made me think of a song that I could not write
Your melody's made up of stuff I have to ponder with
You make my heart accelerate to write on with it
For you, baby there's so much that I will do
To be near the sweetness on you
Funny, everything seems so new
When with you
(Chorus)
Uncalm, uncalm
Uncalm
(End)


Comments:
This is an amazing 311 song. Nice, trancy tune. For the intro
it sounds nice with no bass, lotsa treble and mid., with the
pickup on the guitar all the way down. Any questions, comments,
death threats, love letters or anything of the sort, please
contact me using one of the methods listed above.
Thank you, drive through...
Dirk (:06- 24 -01:)
  development and support by
dmitry ivanov