rock
 
|tablatures   |lyrics   |discussion forums   |more tabs @ XGuitar.com

311 tabs

Today My Love bass tab

'Today My Love' -- Bass Tab
Performed by 311
From the album "Hydroponic" on What Have You? Records
Music by:  N. Hexum & C. Sexton
Lyrics by:  N. Hexum & C. Sexton
(c) 1992 Allegiance Music/Hydroponic Music BMI
---------------
Tabbed by: Justin Reynolds (iLLiHeXiLL@aol.com)
The 311 Guitar Archive -- http://chromosome.colorado.edu/311archive/Home.html

Intro:
======

G:---------------------------------
D:---------------------------------
A:---5---5---5---5---5---5---5---5-
E:-5---6---5---6---5---6---5---6---


Chorus:
=======

G:---------------------------
D:---------------------------
A:---------------------------
E:-3---5---3---5---3---5---3-


Riff 1:
=======

G:-----------------------------------
D:-----------------------------------
A:-----------------------------------
E:-0-0-0---3--2--1---0-0-0-0-0-0-0-0-


Riff 2:
=======

G:-----------------------------------
D:---2------------2----2-----------2-
A:------5-2---5-2--------5-2---5-2---
E:-0--------5-------0--------5-------


Riff 3:
=======

G:--------------------------
D:---2-------------2--------
A:-----5-2---2-5------------
E:-0-------5----------3---2-


== Last Updated:  November 23, 1997 ==
  development and support by
dmitry ivanov