rock
 
|tablatures   |lyrics   |discussion forums   |more tabs @ XGuitar.com

311 tabs

Thriving To The Scene bass tab

'Thriving to the Scene' -- Bass Tab
Performed by 311
From the album "Dammit!" on What Have You? Records
Music by:  ??? (N. Hexum)
Lyrics by:  ??? (N. Hexum)
(c) 1991 Allegiance Music/Hydroponic Music BMI
---------------
Tabbed by: Justin Reynolds (IllIHeXIll@aol.com)
The 311 Guitar Archive -- http://chromosome.colorado.edu/311archive/Home.html


Riff 1:
=======

G:----------------
D:----------------
A:-4--------4--5--
E:---3--4-3-------


Riff 2:
=======

G:--------------
D:------------5-
A:-3--5--2h3----
E:--------------


== Last Updated:  December 13, 1997 ==
  development and support by
dmitry ivanov