rock
 
|tablatures   |lyrics   |discussion forums   |more tabs @ XGuitar.com

311 tabs

Theres Always An Excuse guitar tab

"There's Always An Excuse"
Band: 311
Album: Don't Tread On Me
Tabbed by: Stephen Burge

Tuning: Standard EADGBE

Intro (verse 1)
----0--------0-----------0---------0-0//0\\0------------------
---7--------7-----------5---------5--5//7\\5-------------------
--0----0---0----0-----0-----0---0----0//0\\0--------------------
-7----7---7----7-----5-----5---5-----5//7\\5--------------------
5----5---5----5-----3-----3---3------3//5\\3--------------------
-----------------------------------------------------------------

distorted part
------------------------------------------------------------------------------------------------------------------
------------------------------------------------------------------------------------------------------------------
------------------------------------------------------------5555-4444-----------5555-4444-------------------------
3-333-5-555-3-333-5-7-5-33-333-5-7-5-3--2-5-5-4---2222-5555-5555-4444-2222-5555-5555-4444-7777-5555-4444-3-33-3---
3-333-5-555-3-333-5-7-3-33-333-5-7-5-3--2-5-3-2---2222-5555-3333-2222-2222-5555-3333-2222-7777-5555-4444-3-33-3---
1-111-3-333-1-111-3-5-3-11-111-3-5-3-1--0-3-------0000-3333-----------0000-3333-----------5555-3333-2222-1-11-1---
                                                 [--------------------pm-------------pm--------------------------]

and right after the piano thing (shut it down get it right part
                                                          [ not the exact amount of strums, just play to the music]
 --------------------0-0--------------------------0---0-0----0000000\\0000000//0000000//0000000000----
 --------------------0-0--------------------------0---0-0----3333333\\1111111//3333333//1111111111----
 --------------------0-0--------------------------0-0-0-0----0000000\\0000000//0000000//0000000000----
 4--4-5/7-5-4---4-2--2----222//4--4-5/7-5-4---4-2-2---2-2----4444444\\2222222//4444444//2222222222----
 5-5---/------5-5-3--3----333//5-5---/------5-5-3-3---3-3----5555555\\3333333//5555555//3333333333----
 -----------------------------------------------------------------------------------------------------

solo: still workin on it

nicks part while tim plays the solo
[repeat  til  the  the  ending ]
33333333-x2-00000-------------------
00000000-x0-00000-------------------
00000000-x0-00000-------------------
00000000-x0-22222--444--------------
22222222--2-33333--444--------------
33333333--3--------222--------------

ending
---------------------------------
---------------------------------
----------------0----------------
4444-4444-4444--0----------------
4444-4444-4444--2----------------
2222-2222-2222--3----------------
  development and support by
dmitry ivanov