rock
 
|tablatures   |lyrics   |discussion forums   |more tabs @ XGuitar.com

311 tabs

Thank Your Lucky Stars guitar tab

311 - Thank Your Lucky Stars
Tabbed By: suzy q
Email: mocisins@yahoo.com

Tuning: Standard (E A D G B E)



****CHORUS UPDATED****

Intro
E|--------------------------------||
B|--------------------------------||
G|--------------------------------||
D|-4444--2--4--222--4-------------|| X 13
A|-2222--0--2--222--4-------------||
E|-------------000--2-------------||



E|--------------------------------||
B|--------------------------------||
G|--------------------------------||
D|-2222--4--2--222--4-------------|| X 2
A|-0000--2--0--222--4-------------||
E|-------------000--2-------------||



E|--------------------------------||
B|--------------------------------||
G|--------------------------------||
D|-4444--2--4--222--4-------------|| X 2
A|-2222--0--2--222--4-------------||
E|-------------000--2-------------||


E|--------------------------------||
B|--------------------------------||
G|--------------------------------||
D|-2222--4--2--222--4-------------|| X 2
A|-0000--2--0--222--4-------------||
E|-------------000--2-------------||


E|--------------------------------||
B|--------------------------------||
G|--------------------------------||
D|-4444--2--4--222--4-------------|| X 2
A|-2222--0--2--222--4-------------||
E|-------------000--2-------------||

Chorus
E|-----------------------------------------------------------||
B|-----------------------------------------------------------||
G|-----------------------------------------------------------||
D|--66666-66666/8--44444--44444/6----------------------------|| x 3
A|--44444-66666/8--22222--44444/6----------------------------||
E|--------44444/6---------22222/4----------------------------||

E|--------------------------------||
B|--------------------------------||
G|--------------------------------||
D|-4444--2--4--222--4-------------|| X 10
A|-2222--0--2--222--4-------------||
E|-------------000--2-------------||


E|--------------------------------||
B|--------------------------------||
G|--------------------------------||
D|-2222--4--2--222--4-------------|| X 2
A|-0000--2--0--222--4-------------||
E|-------------000--2-------------||

E|--------------------------------||
B|--------------------------------||
G|--------------------------------||
D|-4444--2--4--222--4-------------|| X 2
A|-2222--0--2--222--4-------------||
E|-------------000--2-------------||

Chorus
E|-----------------------------------------------------||
B|-----------------------------------------------------||
G|-----------------------------------------------------||
D|--66666-66666/8--44444--44444/6----------------------|| x 3
A|--44444-66666/8--22222--44444/6----------------------||
E|--------44444/6---------22222/4----------------------||


E|--------------------------------||
B|--------------------------------||
G|--------------------------------||
D|-444--2--4--2--4--222-----------||
A|-444--2--4--2--4--222-----------||
E|-222--0--2--0--2--000-----------||


E|--------------------------------||
B|--------------------------------||
G|--------------------------------||
D|--444-2-4-xxxxxxx---------------||
A|--444-2-4-xxxxxxx---------------||
E|--222-0-2-xxxxxxx---------------||


E|------------------------------------------||
B|------------------------------------------||
G|------------------------------------------||
D|--444--2--4---------------------444--2--4-||
A|--444--2--4----------0----------444--2--4-||
E|--222--0--2--0--2--4---4--2--0--222--0--2-||

E|--------------------------------||
B|--------------------------------||
G|--------------------------------||
D|-444--2--4--2--4--222-----------||
A|-444--2--4--2--4--222-----------||
E|-222--0--2--0--2--000-----------||


E|--------------------------------||
B|--------------------------------||
G|--------------------------------||
D|--444-2-4-xxxxxxx---------------||
A|--444-2-4-xxxxxxx---------------||
E|--222-0-2-xxxxxxx---------------||


E|------------------------------------------||
B|------------------------------------------||
G|------------------------------------------||
D|--444--2--4---------------------444--2--4-||
A|--444--2--4----------0----------444--2--4-||
E|--222--0--2--0--2--4---4--2--0--222--0--2-||


E|--------------------------------||
B|--------------------------------||
G|--------------------------------||
D|-22---2---4---5555555555--------||
A|-22---0---2---3333333333--------||
E|-00-----------------------------||


Chorus
E|-----------------------------------------------------||
B|-----------------------------------------------------||
G|-----------------------------------------------------||
D|--66666-66666/8--44444--44444/6----------------------|| x 4
A|--44444-66666/8--22222--44444/6----------------------||
E|--------44444/6---------22222/4----------------------||

That Ends that song...Theres one part missing...ill tab it later.
  development and support by
dmitry ivanov