rock
 
|tablatures   |lyrics   |discussion forums   |more tabs @ XGuitar.com

311 tabs

Taiyed bass tab

'Taiyed' -- Bass Tab
Performed by 311
From the album "Grassroots" on Capricorn Records
Music by:  T. Mahoney & A. Wills
Lyrics by:  D. Martinez
(c) 1994 Allegiance Music/Hydroponic Music BMI
---------------
Tabbed by: Jeff (gregersn@erols.com)
           Cseger (cseger@bangornews.infi.net)
The 311 Guitar Archive -- http://chromosome.colorado.edu/311archive/Home.html

[Version 1:]

There's two parts: A is with the cool guitar part, B is with the organ
   part:

Riff A:
=======

G:-------4--2---------------
D:---0--------4--3------4---
A:-2---2-----------2--3---3-
E:--------------------------

Riff B:
=======
G:-----------------------
D:-----------------------
A:---------2-0---5-6-5-6-
E:-0-2-3-4-----4---------


[Version 2:]


1:-------4----2------------------
2:----0---------4---3--2---------
3:-2----------------------5--2-0-
4:-------------------------------
5:-------------------------------

1:-----------------------------
2:-----------------------------
3:----------0--2--0-----5-4--2-
4:-0---2--4----------4---------
5:-----------------------------


== Last Updated:  November 23, 1997 ==
  development and support by
dmitry ivanov