rock
 
|tablatures   |lyrics   |discussion forums   |more tabs @ XGuitar.com

311 tabs

Strong All Along bass tab

'Strong All Along' -- Bass Tab
Performed by 311
From the album "Soundsystem" on Capricorn Records
Music by:  N. Hexum
Lyrics by:  N. Hexum & D. Martinez
(c) 1999 Hydroponic Music BMI
---------------
Tabbed by: Justin Reynolds (jxstylez@aol.com)
           Adam Mazurk (buckwheatsings@hotmail.com)
           Chad Becker (phat3_1_1dk@hotmail.com)
The 311 Guitar Archive -- http://chromosome.colorado.edu/311archive/


Riff 1:
=======

G:----------------------------------------
D:----------------------------------------
A:----------------------------------------
E:-3-3--3-3--3-3--3-3--0-1--0-1--0-1--0-1-
B:----------------------------------------

Riff 2:
=======

G:--------------------|------------------------
D:--------------------|------------------------
A:-----5-3-2----------|------3-3-3-------------
E:-3-3-------5-3-1----|--1-1-------5-5-3-------
B:-----------------3--|------------------5-(1)-
  (2x)                   (2x)
                         (Parantheses) second time only

Riff 3:
=======

G:--------------|----
D:-----5-5------|----
A:---5-----5----|----
E:-3---------3--|--1-
B:--------------|----
   (x2)          (xalot)


== [Version 2] ==

Intro:
======

G:-----------------------------------
D:-----------------------------------
A:-----------------------------------
E:-3--1-3---3--1-3---1--0-1----------
B:----------------------------5--3-5-

Riff 1:
=======

G:--------------------------- \
D:-------0-------------------  \
A:---------2-----------------   > x2
E:-3---3-----3--1--3--1-3----  /
B:-------------------------3- /

G:----------------------- \
D:-----------------------  \
A:--------3-3--3-0-0-----   > x2
E:-1-1--1------------1---  /
B:---------------------1- /

Chorus:
=======

G:---------------------------------------
D:---------------------------------------
A:---------------------------------------
E:---------------------------------------
B:-3---1-3--1-3--1-3--1-1--0-1--0-1--0-1-

Riff 2:
=======

G:-------------------------
D:-----5-----------5-------
A:---5---5---5---5---5---5-
E:-3-------3---3-------3---
B:-------------------------

G:---------------------------------
D:---------------3-----------------
A:---------------------------------
E:-1---1---1---1----1---1---1---1--
B:---1---1---1--------1---1---1----

Riff 3:
=======

G:--------------------------- \
D:-------0-------------------  \
A:---------2-----------------   > x2
E:-3---3-----3--1--3--1-3----  /
B:-------------------------3- /

G:-----------------------
D:-----------------------
A:--------3-3--3-0-0-----
E:-1-1--1------------1---
B:---------------------1-

G:-----------------------
D:-----------------------
A:--------2-2--2---------
E:-0-0--0--------3-3-0---
B:-----------------------

Song Structure:
===============
Drum Intro
Intro
Riff 1
Chorus
Riff 2
Rest
Riff 2
Riff 3
Chorus
Riff 2
Rest
Riff 2
Chorus
Riff 2


== [Version 3] ==

Intro:
======

G:----------------------------------------
D:----------------------------------------
A:----------------------------------------
E:-0-3--0-3--0-3--0-3---------------------
B:---------------------3-6--3-6--2-5--2-5-

Riff 1:
=======

G:------------------------------------------------------------------------------
D:------------------------------------------------------------------------------
A:-----5-3-2---2---2-------5-3-2---2---2-------3-3-3-0-0----------3-3-3-0-0-----
E:-3-3-------3---3---0-3-3-------3---3---0-1-1-----------1---1--1-----------1---
B:---------------------------------------------------------1------------------1-

Riff 2:
=======

G:------------------------------------------------------------------------------
D:------------------------------------------------------------------------------
A:-----5-3-2---2---2--------5-3-2---2---2-------3-3-3-0-0---------2-2-2---------
E:-3-3-------3---3---0-3--3-------3---3---0-1-1-----------1---0-0-------3-3-0---
B:----------------------------------------------------------1-----------------0-

Riff 3:
=======

G:---------------------------------------------------------------
D:-----5-------------5-----------------------(3)-------------(3)-
A:---5---5----5----5---5----5------------------------------------
E:-3--------3----3--------3----1---1---1---1-----1---1---1-------
B:-------------------------------1---1---1---------1---1---1-----

Chorus:
=======

Strong All Along, Strong All Along........
G:----------------------------------------
D:----------------------------------------
A:----------------------------------------
E:-0-3--0-3--0-3--0-3---------------------
B:---------------------3-6--3-6--3-6--3-6-

Song Structure:
===============
Intro  (x2)
Riff 1 (x4)
Chorus (x1)
Riff 3 (x2)
Riff 2 (x4)
Chorus (x1)
Riff 3 (x2)
Chorus (x1)
Riff 3 (x1)
  development and support by
dmitry ivanov