rock
 
|tablatures   |lyrics   |discussion forums   |more tabs @ XGuitar.com

311 tabs

Strangers bass tab

'Strangers' -- Bass Tab
Performed by 311
From the album "Transistor" on Capricorn/Mercury Records
Music by:  N. Hexum
Lyrics by:  N. Hexum 
(c) 1997 Hydroponic Music BMI
---------------
Tabbed by: Jeremy Daw (summit@rideau.net)

The 311 Guitar Archive -- http://chromosome.colorado.edu/311archive/Home.html


Riff 1:
=======

G:------------------
D:-9--9--6--6-7-6-7-
A:------------------
E:------------------
B:------------------


Riff 2:
=======

G:--------------
D:--------------
A:--------------
E:-----6------6-
B:-4-------4----


Riff 3:
=======

G:-----------------------------
D:-----------------------------
A:-0----0----0---0--0--0-0-2-0-
E:-----------------------------
B:-----------------------------


Riff 4:
=======

G:----------------------------------------
D:----------------------------------------
A:----------------------------------------
E:----------------------------------------
B:-0----0-0--0----0-0--0----0-0--0----0-0-


End:
====

G:-----
D:-----
A:-2---
E:-----
B:-----


== Last Updated:  November 4, 1997 ==
  development and support by
dmitry ivanov