rock
 
|tablatures   |lyrics   |discussion forums   |more tabs @ XGuitar.com

311 tabs

Still Dreaming bass tab

Title: Still Dreaming
Artist: 311
Album: Evolver

Instrument: 5 String Bass

Tabbed by:  chris.funkhouser@houstonchristianhs.org

E-mail me with corrections!!

Tuning: Standard (B E A D G)



Intro/Verse:

G|-------------------------------------------------------------------||
D|-------------------------------------------------------------------||
A|-------------------------------------------------------------------||
E|-------------------------------3--3-3--3-3-3-----------------------||
B|-1--1-1--1-1-1--1--1-1--1-1-1----------------3-3-3-3-3-3-3-3-------||

SA Part:


G|-------------------------------------------------------------------||
D|-------------------------------------------------------------------||
A|-------------------------------------------------------------------||
E|--0-0-3-5-5--0-0-3-5-5--0-0-3-5-5--0-0-7-5-5-----------------------||
B|-------------------------------------------------------------------||

Pre-Chorus:



G|------------------------------------||
D|------------------------------------||
A|------------------------------------||
E|-2--0-2-0-2-0-2---------------------||
B|-----------------2--0-2-0-2-0-2-----||


Chorus:


G|------------------------------------------||
D|------------8---------------------8-------||
A|-------5--8--------------5-5--8-8---------||
E|-6--6----------6-6--6-6-------------------||
B|------------------------------------------||

Post-Chorus:


G|---------------------------------||
D|---------------------------------||
A|---------------------------------||
E|-6-8-6---4-6-4---3---------------||
B|---------------------3-----------||
  development and support by
dmitry ivanov