rock
 
|tablatures   |lyrics   |discussion forums   |more tabs @ XGuitar.com

311 tabs

Stealing Happy Hours bass tab

'Stealing Happy Hours' -- Bass Tab
Performed by 311
From the album "Transistor" on Capricorn/Mercury Records
Music by:  N. Hexum
Lyrics by:  N. Hexum
(c) 1997 Hydroponic Music BMI
---------------
Tabbed by: Jeremy Daw (summit@rideau.net)
The 311 Guitar Archive -- http://chromosome.colorado.edu/311archive/Home.html


Intro:
======

G:-9------9------7------7--------------------
D:--9------9------7------7-------------------
A:---7------7------5------5-5-5--5-5-5-x-5-5-
E:-------------------------------------------
B:-------------------------------------------


Main Part:
==========

G:----------------------------------------
D:----------------------------------------
A:-7-x-7-7-7-x-9-11-9--7-x-7-7-7-x-9-11-9-
E:----------------------------------------
B:----------------------------------------

G:--------------------------------------
D:--------------------------------------
A:-5-x-5-5-5-x-7-9-7--5-x-5-5-5-x-7-9-7-
E:--------------------------------------
B:--------------------------------------


Other Part:
===========

G:---------------------------------
D:-----------------------------2---
A:---2---------------2-------------
E:-4----0----------4----0--0-0---0-
B:---------------------------------


== Last Updated:  September 16, 1997 ==
  development and support by
dmitry ivanov