rock
 
|tablatures   |lyrics   |discussion forums   |more tabs @ XGuitar.com

311 tabs

Speak Easy guitar tab

"Speak Easy"
Performed by 311
From:Don't Tread On Me
Tabbed by Matt Blackwell
Tabbed on August 28, 2005

A Q-Tron or MuTron is used through the whole song
on Guitar 1,with delay on the verses.
This only Guitar 1. Guitar 2 is very faint.
Whole song is played clean.

()= Not really Guitar 1 but fits with the intro
 x= Mute string(s)
 p= Pull Off

Intro (Guitar 1)- (With Q-Tron or Mutron Effect)
=================================================
1------------------------------------------------
2----------------2----0---(0)--------------------
3-2--------------2----0--------------------------
4-4--------(0)---2----0--------------------------
5-5----2---------4----2--------------------------
6-------3----------------------------------------

Verse-(Q-Tron/Mutron and some delay)
======================================
1--10-x-10-x-------------------------------------
2--10-x-10-x-12-x-12-x-12-x-12-12-12-12----------
3------------12-x-12-x-12-x-12-12-12-12----------
4------------------------------------------------
5------------------------------------------------
6------------------------------------------------

1--9---x--9---x----------------------------------
2--10--x--10--x----------------------------------
3---------------12-x-12-x-12-x-12-12-12-12-------
4---------------12-x-12-x-12-x-12-12-12-12-------
5------------------------------------------------
6------------------------------------------------

Chorus-(Q-Tron/Mutron and some delay)
======================================
1------------------------------------------------
2--13p10----13-12p10-------------13----12-10-----
3--------10-------------12----14----12-------10--
4--------------------10--------------------------
5------------------------------------------------
6------------------------------------------------

1------------------------------------------------
2--------------13-10-12p10---------13---12-10----
3--10-------12----------------12-14---12-----10--
4-----12-14----------------14--------------------
5------------------------------------------------
6------------------------------------------------

1------------------------------------------------
2---------------13--13---------------------------
3--10-12-10------------9----14-14-12-12-10-------
4------------------------14----------------------
5------------------------------------------------
6------------------------------------------------

1------------------------------------------------
2---------------13--13---------------------------
3--9-10-12-10----------9-----14-14-12-12-10------
4------------------------14----------------------
5------------------------------------------------
6------------------------------------------------

1------------------------------------------------
2------------------------------------------------
3--9-10-12-10------------------------------------
4------------------------------------------------
5------------------------------------------------
6------------------------------------------------

1-------------------------------12--10-----------
2------------13-12--------10-13--------12--------
3--12-9-12-9-------12-12------------------12-----
4------------------------------------------------
5------------------------------------------------
6------------------------------------------------

1------------------------------------------------
2--13-10-10--------------------------------------
3------------------------------------------------
4------------------------------------------------
5------------------------------------------------
6------------------------------------------------

1-------------------------------12--10-----------
2------------13-12--------10-13--------12--------
3--12-9-12-9-------12-12------------------12-----
4------------------------------------------------
5------------------------------------------------
6------------------------------------------------

1--10--------------------------------------------
2-----13-13--------------------------------------
3------------------------------------------------
4------------------------------------------------
5------------------------------------------------
6------------------------------------------------

Intro (Guitar 1)- (With Q-Tron or Mutron Effect)
=================================================
1------------------------------------------------
2----------------2----0---(0)--------------------
3-2--------------2----0--------------------------
4-4--------(0)---2----0--------------------------
5-5----2---------4----2--------------------------
6-------3----------------------------------------

Verse-(Q-Tron/Mutron and some delay)
======================================
1--10-x-10-x-------------------------------------
2--10-x-10-x-12-x-12-x-12-x-12-12-12-12----------
3------------12-x-12-x-12-x-12-12-12-12----------
4------------------------------------------------
5------------------------------------------------
6------------------------------------------------

1--9---x--9---x----------------------------------
2--10--x--10--x----------------------------------
3---------------12-x-12-x-12-x-12-12-12-12-------
4---------------12-x-12-x-12-x-12-12-12-12-------
5------------------------------------------------
6------------------------------------------------

Chorus-(Q-Tron/Mutron and some delay)
======================================
1------------------------------------------------
2--13p10----13-12p10-------------13----12-10-----
3--------10-------------12----14----12-------10--
4--------------------10--------------------------
5------------------------------------------------
6------------------------------------------------

1------------------------------------------------
2--------------13-10-12p10---------13---12-10----
3--10-------12----------------12-14---12-----10--
4-----12-14----------------14--------------------
5------------------------------------------------
6------------------------------------------------

1------------------------------------------------
2---------------13--13---------------------------
3--10-12-10------------9----14-14-12-12-10-------
4------------------------14----------------------
5------------------------------------------------
6------------------------------------------------

1------------------------------------------------
2---------------13--13---------------------------
3--9-10-12-10----------9-----14-14-12-12-10------
4------------------------14----------------------
5------------------------------------------------
6------------------------------------------------

1------------------------------------------------
2------------------------------------------------
3--9-10-12-10------------------------------------
4------------------------------------------------
5------------------------------------------------
6------------------------------------------------

1-------------------------------12--10-----------
2------------13-12--------10-13--------12--------
3--12-9-12-9-------12-12------------------12-----
4------------------------------------------------
5------------------------------------------------
6------------------------------------------------

1------------------------------------------------
2--13-10-10--------------------------------------
3------------------------------------------------
4------------------------------------------------
5------------------------------------------------
6------------------------------------------------

1-------------------------------12--10-----------
2------------13-12--------10-13--------12--------
3--12-9-12-9-------12-12------------------12-----
4------------------------------------------------
5------------------------------------------------
6------------------------------------------------

1--10--------------------------------------------
2-----13-13--------------------------------------
3------------------------------------------------
4------------------------------------------------
5------------------------------------------------
6------------------------------------------------

End on

1---
2---
3-2-
4-4-
5-5-
  development and support by
dmitry ivanov