rock
 
|tablatures   |lyrics   |discussion forums   |more tabs @ XGuitar.com

311 tabs

Speak Easy bass tab

"Speak Easy"
Performed by 311
On the album Don't Tread On Me (2005) on Volcano Records
Tabbed by: Jonny Beber (jonnybsay119@aol.com)

Standard Tuning (EADG)

Great great 311 song, has a great rhythm to it, which makes the bassline really fun, enjoy!

The whole cd is awesome!


Intro
G----7------------------------------
D----------5--------------7------5--
A-----------------------------------
E-----------------------------------   4x

Verse (same as intro)
G----7------------------------------
D----------5--------------7------5--
A-----------------------------------
E-----------------------------------   4x

Prechorus
G-----------------------------------------------------------------------------------
D-----------------------------------------------------------------------------------
A--5-5---5---5---5------------------------------------------------------------------
E------------------3-3---3---3---3-3-3---3---3---3-5-5---5---5---5-3-3---3---3---3--   4x


Chorus                                         On 6th time of chorus
G----------------------------------            G----------------------------------
D----------------------------------            D----------------------------------
A----------------------------------            A-------------------------3--------
E--8\-----7\----5----3----1---1-1--   8x       E---8\----7\-----5----7------------


Intro  1x


Verse  2x


Prechorus  2x


Chorus  Exactly as before!


End
G--------------------------------------
D--------------------------------------
A----------------------------------5---
E---8\----7\----5----3----1---1-1------



That is it, enjoy the song!  Buy this cd, I think its the best 311 cd yet!  Email me with

suggestions or requests!  jonnybsay119@aol.com        -Jonny
  development and support by
dmitry ivanov