rock
 
|tablatures   |lyrics   |discussion forums   |more tabs @ XGuitar.com

311 tabs

Soulsucker bass tab

'Soulsucker' -- Bass Tab
Performed by 311
From the album "Hydroponic" on What Have You Records
Music by:  N. Hexum, C. Sexton, T. Mahoney, and A. Wills
Lyrics by:  N. Hexum and D. Martinez
(c) 1992 Allegiance Music/Hydroponic Music BMI
---------------
Tabbed by: Justin Reynolds (iLLiHeXiLL@aol.com)
The 311 Guitar Archive -- http://chromosome.colorado.edu/311archive/Home.html


Riff 1:
=======

G:----5-----------5----5---
D:------5------------5---5-
A:--------5----------------
E:-7--------7--7-----------


Riff 2:
=======

G:----2----------
D:------2--------
A:--------2------
E:-4--------4--4-


Fill:
=====

G:-------------------
D:---------0-1-2-----
A:-0-1-2-------------
E:-----------------2-


Chorus:
=======

G:----------------------------
D:----------------------------
A:----------------------------
E:-2-2-2-2-2--3--2-2-2-2-2--0-


Bridge and End:
===============

3:-------------------------------------------------
4:-------------------------------------------0-1-2-
5:-0-1-2-------0-1-2-------0-1-2-------0-1-2-------
6:-------0-1-2-------0-1-2-------0-1-2-------------


== Last Updated:  November 23, 1997 ==
  development and support by
dmitry ivanov