rock
 
|tablatures   |lyrics   |discussion forums   |more tabs @ XGuitar.com

311 tabs

Solar Flare guitar tab

Band: 311
Song: Solar Flare
Album: Don't Tread on Me
Year: 2005
Tabbed by: Mark O'Conner

Hey, this is the only rap track on Don't Tread on Me and its definetely one
of 311's best rap songs yet. Please give me a rating that i desserve. On my last
tab i got a bogus rating, hah, here it is.


Bass plays intro

Guitar intro
e -------------------------------
B -------------------------------
G --4--7--4---4--7--4------------
D --4--7--4---4--7--4------------
A --2--5--2---2--5--2------------
E  -2--5--2---2--5--2------------

Verse
e ----------------------------------------
B ----------------------------------------
G --4--7--4--9--7---4-4--7--4--9--7--4----
D --4--7--4--9--7---4-4--7--4--9--7--4----
A --2--5--2--7--5---2-2--5--2--7--5--2----
E  -2--5--2--7--5---2-2--5--2--7--5--2----

Break
e -------------------------------
B -------------------------------
G --4--7--4---4--7--4------------
D --4--7--4---4--7--4------------
A --2--5--2---2--5--2------------
E  -2--5--2---2--5--2------------

Pre-Chorus (sounds fine if you just play the A)
e -------------------------------
B -------------------------------
G -----------5-7-----------------
D --7-7-7-7--5-7--7--------------
A --7-7-7-7--3-5--7--------------
E  -5-5-5-5-------5--------------

Chorus
e --------------------------------------------
B --------------------------------------------
G --------------------------------------------
D --5-5-5-4-4-4-3-3-3--2-2--------------------
A --5-5-5-4-4-4-3-3-3--2-2---b5---b5---b5-----
E  -3-3-3-2-2-2-1-1-1--0-0------0----0--------


There it is, just listen to the song to know how many
Times to play the parts, pretty easy.
Later
  development and support by
dmitry ivanov