rock
 
|tablatures   |lyrics   |discussion forums   |more tabs @ XGuitar.com

311 tabs

Sick Tight bass tab

SONG:SICK TIGHT

ALBLUM:FROM CHAOS

BAND:311

TABBER:T4TURBO

INTRO/MAIN RIFF:
G:---------|
D:---------|
A:---------|
E:2-4-0-2--|
B:--------2|

INTRO X 4 BUT DURING THE REST OF THE SONG X 3 AND THEN DO:
G:--------|
D:--------|
A:--------|
E:--------|
B:2-2--5-4|

PART2:
G:-------------------------------------------|
D:-------------------------------------------|
A:-------------------------------------------|
E:----------5-----------5-----------5-----0-6|
B:2-2-2-2-2---2-2-2-2-2---2-2-2-2-2---2-4----|

PART3:
G:---------------------------------------------------------------|
D:---------------------------------------------------------------|
A:---------------------------------------------------------------|
E:2-2-X-2-X-2-X-2-X-2-3-3-X-3-X-3-X-3-X-3-0-0-X-0-X-0-X-0-X-0-2-2|
B:---------------------------------------------------------------|

BRIDGE:
  sssssspssssspsssssp
G:------4-----4-----4|
D:-------------------|
A:-------------------|
E:-------XXXX----x---|
B:0--0----------x-x--|

END:
G:---|
D:---|
A:---|
E:---|
B:0-0|
  development and support by
dmitry ivanov