rock
 
|tablatures   |lyrics   |discussion forums   |more tabs @ XGuitar.com

311 tabs

Sever bass tab

'Sever'
Performed by 311
From the album "Soundsysten" on Capricorn Records
Music by:  N. Hexum & A. Wills
Lyrics by:  N. Hexum & D. Martinez
(c) 1999 Hydroponic Music BMI
---------------
Tabbed by: T Rankin (??@??)
Corrections by: Uniburn (Uniburn182@hotmail.com)
The 311 Guitar Archive -- http://bigworm.colorado.edu/311archive/


Chorus:
=======

G:----------------------------------------------------------
D:----------------------------------------------------------
A:----------------------------------------------------------
E:-----------------0-0--0-0-0-0--5-5--5-5-5-5--6-6--5-6-5-6-
B:-1-1--1--1--1--1------------------------------------------
 
Verse 1:
========
 
G:-------------------------------------------
D:-------5------------3----------------------
A:-------------------------------------------
E:-3--3-----3---1--1-----1---0-0-0-0-1-1-1-1-
B:-------------------------------------------
 
Verse 2:
========
 
G:---------------------------
D:------5---3----2-2-2---3-3-
A:-5--5---5---3--------1-----
E:---------------------------
B:---------------------------
 
Prechorus:
==========
 
G:------------
D:------------
A:------------
E:-6--6--6--6-
B:------------
 
Guitar Solo Part:
=================
 
G:--------------------------------------------------
D:-----7-------9-10--9--12--11----14--15--14--9--10-
A:---8---8--7------------------12-------------------
E:-5------------------------------------------------
B:--------------------------------------------------

Ending Fill:
============

G:---------
D:---------
A:---------
E:-5--0--1-
B:---------
 
 
Song Structure:
===============
 
Chorus
Verse 1
Verse 2
Prechorus fill
Chorus 
Verse 1
Verse 2
Prechorus fill
Solo part
Ending Fill
  development and support by
dmitry ivanov