rock
 
|tablatures   |lyrics   |discussion forums   |more tabs @ XGuitar.com

311 tabs

Seems Uncertain bass tab

'Seems Uncertain' -- Bass Tab
Performed by 311
From the album "Evolver" on Volcano Records
Music by:  N. Hexum
Lyrics by:  N. Hexum
(c) 2003 Hydroponic Music BMI
========================

This song is played on a 5-string upright.
 But this can be played on a regular 5-string bass.
You can see p-nut play this song on the 311 day live dvd.
Not to sure if its right or not. But please rate.
For corrections e-mail me at ADICTS714@yahoo.com If not make your own tab.


Guitar Intro


Pre-chours
==========
G:-----------|
D:-----------|
A:-----------|  x4
E:-2---0-2---|
B:---------5-|


Chorus
======
G:------|
D:------|
A:-5----|  x4
E:---5--|
B:------|


Verse
======
G:-------------------|
D:-------------------|
A:-4---4-7-----------|  x4
E:---------5---5-7---|
B:-------------------|


Pre-chours
==========
G:-----------|
D:-----------|
A:-----------|  x3
E:-2---0-2---|
B:---------5-|


Chorus
======
G:------|
D:------|
A:-5----|  x4
E:---5--|
B:------|


Bridge
======
G:-------------------------------------------------|
D:-------------------------------------------------|
A:-------------------------------------------------|
E:-5-5-5-5-5-5-5-5-5-5-5-5-5-5-5-5-5-5-5-5-5-5-5-5-|
B:-------------------------------------------------|

G:-----------------------------------------------|
D:-----------------------------------------------|
A:-----------------------------------------------|
E:-5-5-0-0--5-5-5-5-5-5-5-5-5-5-5-5-5--5-5-0-0---|
B:-----------------------------------------------|

G:-------2--8\\--|
D:---1-4---------|
A:-2-------------|
E:---------------|
B:---------------|


Verse 2
=======
G:--------------|
D:--------------|
A:--------------|  x8
E:----0-2-0-2-2-|
B:-5------------|


Pre-chorus 2
============
G:--------------|---------------|
D:--------------|---------------|
A:--------------|---------------|   x4
E:----0-2-2-5-7-|-----0-2-0-2-2-|
B:-5------------|-5-------------|


Chorus/Outro
=============
G:------|
D:------|
A:-5----|  x4
E:---5--|
B:------|
  development and support by
dmitry ivanov