rock
 
|tablatures   |lyrics   |discussion forums   |more tabs @ XGuitar.com

311 tabs

Seal The Deal guitar tab

Artist: 311
Song: Seal The Deal
Album: Soundsystem "Outtake"
Record Label : Volcano Records
Tabber: Unity Mix Up (Anthony C)

What's Up Every One , And Fellow 311 Brodles. I Was Sitting Down With The Guitar
While Listening To "Seal The Deal" And I Sort Of Figured Out The Whole Song So
Enjoy. By The Way You Can Only Download "Seal The Deal" Of The Bands Website.
Peace , Unity , And Much Love To All ! ! 


Intro: (Hardcore Distortion/Palm Muted)
e:--------------------------------------------------------------
b:--------------------------------------------------------------
g:--------------------------------------------------------------
d:----------------5-5-5--7-7------------------------------------
a:--7-7-7--5-5-5--3-3-3--5-5------------------------------------
E:--5-5-5--3-3-3--3-3-3--5-5------------------------------------

Chorus: (Repeated Throughout Chorus)
e:--------------------------------------------------------------
b:--------------------------------------------------------------
g:--------------------------------------------------------------
d:---7-7-7-----7-7-7----7-7-7-----------------------------------
a:---5-5-5-----5-5-5----5-5-5-----------------------------------
E:---5-5-5-----5-5-5----5-5-5-----------------------------------

There It Is. Please Correct If You Have A Better Version,
But For Now This Is All I Know. Have Fun And Enjoy.
  development and support by
dmitry ivanov