rock
 
|tablatures   |lyrics   |discussion forums   |more tabs @ XGuitar.com

311 tabs

Same Mistake Twice guitar tab

"Same Mistake Twice"
Performed by 311
Album: Evolver
Tabbed out by: Jonathan Werness  (JonathanWerness@netscape.net)
Updated: Friday, August 8, 2003
(Now it’s 100% correct)
Standard Tuning

Intro:
|-------------------------------
|-------------------------------
|-------------------------------
|-------------------5/10--------
|-3-3-1-1-----------X/-X--------
|---------4-4-3-----3/-8--------

Chorus:
|-------------------------------
|-------------------------------
|-------------------------------
|-3-3-3-3--6-6----5----5-3-6-5--
|-3-3-3-3--6-6----3----3-1-6-5--
|-1-1-1-1--4-4----3----3-1-4-3—

Riff 1:
|------------------------------
|------------------------------
|-4h5-5h7-7h8-8h10-------------
|------------------------------
|------------------------------
|------------------------------

Riff 2:
|------------------------------
|------------------------------
|-5h7-7h8-8h10-10h12-----------
|------------------------------
|------------------------------
|------------------------------

Verse:
|--------------
|---on3---on4--
|--------------
|-2-----2------
|-2-----2------
|-0-XXX-0-XXX--

Next part verse:
|-------------------------------------------------------------------
|---------on3---on4---on3---------on3---on4---on3---------on3---on4-
|-------------------------------------------------------------------
|-2-3-4-5-----5-----5-----5-4-3-2-----2-----2-----2-3-4-5-----5-----
|-2-3-4-5-----5-----5-----5-4-3-2-----2-----2-----2-3-4-5-----5-----
|-0-1-2-3-XXX-3-XXX-3-XXX-3-2-1-0-XXX-0-XXX-0-XXX-0-1-2-3-XXX-3-XXX-

|----------------------
|---on3----------------
|----------------------
|-5-----5---4---5---4--
|-5-----5---2---3---4--
|-3-XXX-3---2---3---2—

Slower/Spacy Part: (All of your life….)   plm = palm mute
|---------------------------------0-----------------------------------
|---------------------------------0--------------plm---plm---plm---plm
|---------------------------------0------------2-222-2-222-2-222-2-222
|-5---2---3---3---5---2---3---3---2------------2-222-2-222-2-222-2-222
|-3---0---1---3---3---0---1---3---2------------0-000-0-000-0-000-0-000
|-3---0---1---1---3---0---1---1---0-----------------------------------

|---------------------------------------------------------------------
|---------------------------------------------------------------------
|---------------------------------------------------------------------
|--2-----2-----2-----2-----2-2-3-3-4-4-5------------------------------
|--2-XXX-2-XXX-2-XXX-2-XXX-0-0-1-1-2-2-3------------------------------
|--0-XXX-0-XXX-0-XXX-0-XXX-0-0-1-1-2-2-3------------------------------



Come Original
  development and support by
dmitry ivanov