rock
 
|tablatures   |lyrics   |discussion forums   |more tabs @ XGuitar.com

311 tabs

Same Mistake Twice bass tab

itle: Same Mistake Twice
Artist: 311
Album: Evolver

Instrument: 5 String Bass

Tabbed by:  chris.funkhouser@houstonchristianhs.org

E-Mail me with corrections!!!

Tuning: Standard (B E A D G)


Intro/Chorus:


G|-------------------------------------------------------------------||
D|-------------------------------------------------------------------||
A|-------------------------------------3--1--------------------------||
E|-1--1--1--1--4-4-4-4-----------------------4--3--------------------|| x4
B|------------------------1--1--1--1---------------------------------||

Verse:


G|----------------------||
D|----------------------||
A|----------------------||
E|-0----0----0----0-----||
B|----------------------|| x5

G|-------------------------------------------------------------------||
D|-------------------------------------------------------------------||
A|-------------------------------------------------------------------|| x1
E|-0-1-2-3---3---3---3---3-2-1-0---0---0---0---0-1-2-3--3--3--3--3---||
B|-------------------------------------------------------------------||

G|---------------------------||
D|---------------------------||
A|---------------------------||
E|--------------------2--2---|| x1
B|--0--0--0--0--1--1---------||


Chorus:


G|-------------------------------------------------------------------||
D|-------------------------------------------------------------------||
A|-------------------------------------3--1--------------------------||
E|-1--1--1--1--4-4-4-4-----------------------4--3--------------------|| x2
B|------------------------1--1--1--1---------------------------------||

Verse:


G|----------------------||
D|----------------------||
A|----------------------||
E|-0----0----0----0-----||
B|----------------------|| x5

G|-------------------------------------------------------------------||
D|-------------------------------------------------------------------||
A|-------------------------------------------------------------------||
E|-0-1-2-3---3---3---3---3-2-1-0---0---0---0---0-1-2-3--3--3--3--3---|| x1
B|-------------------------------------------------------------------||

G|---------------------------------||
D|---------------------------------||
A|---------------------------------||
E|----------2--2-------------------|| x1
B|--0---1--------------------------||


Chorus w/ transistion to bridge:


G|-------------------------------------------------------------------||
D|-------------------------------------------------------------------||
A|-------------------------------------3--1--------------------------||
E|-1--1--1--1--4-4-4-4-----------------------4--3--------------------|| x1
B|------------------------1--1--1--1---------------------------------||

G|--------------------------||
D|--------------------------||
A|--------------------------||
E|-1--1--1--1--4-4-4-4------|| x1
B|--------------------------||


Bridge:

G|-------------------------------------------------------------------||
D|-------------------------------------------------------------------||
A|-------------------------------------------------------------------|| x1
E|--------------5--5--5--5--6--6--6--6--1--1--1--1-------------------||
B|--1--1--1--1-------------------------------------------------------||

G|-------------------------------------------------------------------||
D|-------------------------------------------------------------------||
A|-------------------------------------------------------------------|| x1
E|--------------5--5--5--5--6--6--6--6--1--1--1--1-------------------||
B|--1--1--1--1-------------------------------------------------------||

Note- I'm almost 100% the real fast fill P-Nut plays is wrong here,
my ears aren't fast enough yet =( E-mail if you can fix it.

G|--------------------------------------------------------------------||
D|----------7-5---5---------------------------------------------------||
A|--------------7---7-5---5-------------------------------------------||
E|-0---3h5--------------7---7----5--5--5--5--0--0--0--0--5--6--7--8---|| x1
B|--------------------------------------------------------------------||



Chorus:

G|-------------------------------------------------------------------||
D|-------------------------------------------------------------------||
A|-------------------------------------3--1--------------------------||
E|-1--1--1--1--4-4-4-4-----------------------4--3--------------------|| x2
B|------------------------1--1--1--1---------------------------------||

Outro:

G|----------------------------------------------------------||
D|----------------------------------------------------------||
A|--------------------------------3-3-1-1-------------------||
E|-1----1----4----4-----------------------4-4-3-3-----------||
B|---------------------1----1-------------------------------||


G|--------------------------------||
D|--------------------------------||
A|--------------------------------||
E|-1----1----4----4---------------|| x1
B|---------------------1----------||
  development and support by
dmitry ivanov