rock
 
|tablatures   |lyrics   |discussion forums   |more tabs @ XGuitar.com

311 tabs

Rub-a-Dub bass tab

'Rub a Dub' -- Bass Tab
Performed by 311
From the album "Transistor" on Capricorn/Mercury Records
Music by:  N. Hexum
Lyrics by:  N. Hexum
(c) 1997 Allegiance Music/Hydroponic Music BMI
---------------
Tabbed by: Justin Reynolds (ChAoSHeX@juno.com)
The 311 Guitar Archive - http://chromosome.colorado.edu/311archive/

Shout out to my master friend Matt Warren....just your basic 
reggae bassline...

Riff A: [0:10]
==============

G:---------------
D:---------------
A:-3-3-----------
E:-------3--3-3--

Riff B: [0:21]
==============

G:--------------
D:------------2-
A:-3-3-5-5------
E:--------------

Riff C: [0:32]
==============

G:---------------
D:---------------
A:-3-3----5--5-5-
E:-----3---------

Riff D: [0:53]
==============

G:-------------
D:-------------
A:-3-3-5-5-5-3-
E:-------------

Riff E: [1:13]
==============

G:--------------
D:--------------
A:-3-3----3-5-5-
E:------3-------

Ending:
=======

G:----------
D:----------
A:----------
E:-1///////-


Song Structure:
===============
Riff A: 4x
Riff B: 4x
Riff C: 4x
Riff A: 4x [0:41]
Riff D: 4x
Riff A: 4x [1:03]
Riff E: 4x
Riff A: 4x [1:23]
Rest (No Bass) 
Riff E: 8x [1:55]
Ending: 1x [2:37]
  development and support by
dmitry ivanov