rock
 
|tablatures   |lyrics   |discussion forums   |more tabs @ XGuitar.com

311 tabs

Rollin' bass tab

'Rollin' -- Bass Tab
Performed by 311
From the album "Unity" on What Have You? Records
Music by:  N. Hexum, C. Sexton, A. Wills & T. Mahoney
Lyrics by:  N. Hexum
(c) 1991 Allegiance Music/Hydroponic Music BMI
---------------
Tabbed by: Justin Reynolds (iLLiHeXiLL@aol.com)
The 311 Guitar Archive -- http://chromosome.colorado.edu/311archive/Home.html


Main Riff:
==========

G:------------------------
D:------------------------
A:-2-0-2-0-2-0-2-0--------
E:------------------3-2-0-


Verse [slap]:
=============

G:-----9-9-7---------
D:------------7-7----
A:-5-5-------------5-
E:-------------------


Bridge:
=======

G:------------------------
D:--------------------5-7-
A:-2-0-2-0-2-0---5-7------
E:------------------------


== Last Updated:  January 8, 1998 ==
  development and support by
dmitry ivanov