rock
 
|tablatures   |lyrics   |discussion forums   |more tabs @ XGuitar.com

311 tabs

Right Now bass tab

'Right Now' -- Bass Tab
Performed by 311
From the album "Unity" on What Have You? Records
Music by:  N. Hexum, C. Sexton & C. Grubb
Lyrics by:  N. Hexum, C. Sexton & C. Grubb
(c) 1991 Allegiance Music/Hydroponic Music BMI
---------------
Tabbed by: Justin Reynolds (iLLiHeXiLL@aol.com)
The 311 Guitar Archive -- http://chromosome.colorado.edu/311archive/Home.html


Intro:
======

G:----------------------------------------------
D:----------------------------------------------
A:---------------------------5-5-5-5-5----------
E:-0-0-0-0-0--3-3-3-3-3-3-3-------------3-----0-


Pre-Chorus:
===========

G:-----------------------------
D:-----------------------------
A:-----------------------------
E:-0---3---0---1-1-1-1-1---3-3-


Chorus:
=======
   
G:--------------------------------------------------------
D:--------------------------------------------------------
A:--------------------------------------------------------
E:-0----5-7-----0----5-7-----0----5-7-5-7-----3--3-3-3--2-


Ending:
=======
   
G:------------------------
D:----------------5-------
A:----------5-6-7---7-5---
E:-0-3-5-7--------------7-


== Last Updated:  January 8, 1998 ==
  development and support by
dmitry ivanov