rock
 
|tablatures   |lyrics   |discussion forums   |more tabs @ XGuitar.com

311 tabs

Reconsider Everything guitar tab

Date: Thu, 23 Jan 2003 15:34:15 -0600
From: Ron Monge <aspec@charter.net>
Subject: 3/311/reconsider_everything.tab

'Reconsider Everything' - Guitar Tab
Performed by 311
Not yet on an album
---------
Tabbed by: Merkutio (aspec@frontiernet.net) and John

Intro:

Guitar 1: (rhythm)
E--------------------------------------------------------------
B--------------------------------------------------------------
G--------------------------------------------------------------
D-7--7--7-7-7--5--5--55555----10-10-101010--7--7--7-7-7-7-7-(7)
A-7--7--7-7-7--5--5--55555----10-10-101010--7--7--7-7-7-7-7-(7)
E-5--5--5-5-5--3--3--33333----8--8--8-8-8---7--7--7-7-7-7-7-(5)

(#)= play at end of intro, before first verse



Guitar 2: (solo)
E-------5-b-3-b-0-------------------------0*-------------------
B------------------3--------------1-h-3-h-5-b-3----------------
G--------------------4-b-0------------------------4-b-0-----(2)
D--------------------------------------------------------------
A--------------------------------------------------------------
E--------------------------------------------------------------

 * = could be played in place of 5
(#)= play at end of intro, before first verse


This song has a hook.  No one else had the tab for the intro solo,
so we sat down and did one.  Maybe if I get some more time, we'll
tab the rest, but all we've got are the live recordings, and they
get a little fuzzy in the middle.  Anything to add or correct?
All is welcome at aspec@frontiernet.net

-Merkutio and John (but his name isn't really John, he just isn't creative)
  development and support by
dmitry ivanov