rock
 
|tablatures   |lyrics   |discussion forums   |more tabs @ XGuitar.com

311 tabs

Reconsider Everything bass tab

Title: Reconsider Everything
Artist: 311
Album: Evolver

Instrument: 5 String Bass

Tabbed by:  chris.funkhouser@houstonchristianhs.org

E-mail so i can make corrections!

Tuning: Standard (B E A D G)



Intro:

G|----------------------------------------------------------||
D|----------------------------------------------------------||
A|----------------------3-3-3-------------------------------||
E|---5-5-5--3-3--3-3-3---------0-0--0-0-0-------------------||
B|----------------------------------------------------------||

G|----------------------------------------------------------||
D|----------------------------------------------------------||
A|----------------------3-3-3-------------------------------||
E|---5-5-5--3-3--3-3-3---------0-0--0-0-0-------------------||
B|----------------------------------------------------------||

G|----------------------------------------------------------||
D|----------------------------------------------------------||
A|----------------------3-3-3-------------------------------||
E|---5-5-5--3-3--3-3-3---------0-0--0-0-0-------------------||
B|----------------------------------------------------------||

G|----------------------------------------------------------||
D|-----------------------------------------5/7--------------||
A|----------------------3-3-3/-7-7--7-7-7-------------------||
E|---5-5-5--3-3--3-3-3--------------------------------------||
B|----------------------------------------------------------||

Verse:

G|----------------------------------------------------------||
D|----------------------------------------------------------||
A|----------------------------------------------------------||
E|---5-5-5--3-3--3-3-3---------0-0--0-0-0-------------------||
B|----------------------1-1-1-------------------------------||

Guitar riff part again:

G|----------------------------------------------------------||
D|----------------------------------------------------------||
A|----------------------3-3-3-------------------------------||
E|---5-5-5--3-3--3-3-3---------0-0--0-0-0-------------------||
B|----------------------------------------------------------||

Verse (watch for pause):

G|----------------------------------------------------------||
D|----------------------------------------------------------||
A|----------------------------------------------------------||
E|---5-5-5--3-3--3-3-3---------0-0--0-0-0-------------------||
B|----------------------1-1-1-------------------------------||

Chorus:


G|------------------------------------------------------||
D|-----------------------------7-------7-----7----------||
A|--3-3-3--3--3-3--3-3-3-----7---7---7---7----7---------||
E|-------------------------5-------5-------5----5-------||
B|------------------------------------------------------||



G|-----------------------------------------||
D|-----------------------------------------||
A|--3-3-3--3--3-3--3-3-3-------------------||
E|------------------------5-5--3-3--0------||
B|-----------------------------------------||

G|------------------------------------------------------||
D|-----------------------------7-------7-----7----------||
A|--3-3-3--3--3-3--3-3-3-----7---7---7---7----7---------||
E|-------------------------5-------5-------5----5-------||
B|------------------------------------------------------||

G|----------------------------------7-------9-----9---------||
D|-----------------------------5/7----7-------9-----9-------||
A|--3-3-3--3--3-3--3-3-3----5-------------7-----7-----7-----||
E|----------------------------------------------------------||
B|----------------------------------------------------------||

Guitar Riff Part:

G|----------------------------------------------------------||
D|----------------------------------------------------------||
A|----------------------3-3-3-------------------------------||
E|---5-5-5--3-3--3-3-3---------0-0--0-0-0-------------------||
B|----------------------------------------------------------||

SA Part:

G|---------------------------------||
D|---------------------------------||
A|---------------------------------||
E|-2-2-2-2-2-2-3-3-3-3-3-3---------||
B|---------------------------------||

Bridge:

G|-----------------------------------------------||
D|-----------------------------------------------||
A|--2-2-------3-3----------2-2--------3----------||
E|--------3h5------2-2-----------3h5-----2-2-2---||
B|-----------------------------------------------|| x4

Outro:

G|----------------------------------------------------------||
D|----------------------------------------------------------||
A|----------------------3-3-3-------------------------------||
E|---5-5-5--3-3--3-3-3---------0-0--0-0-0-------------------||
B|----------------------------------------------------------||

G|----------------------------------2-/-9-/-2---------------||
D|----------------------------------------------------------||
A|----------------------3-3-3-------------------------------||
E|---5-5-5--3-3--3-3-3---------0-0--------------------------||
B|----------------------------------------------------------||

G|----------------------------------------------------------||
D|----------------------------------------------------------||
A|----------------------3-3-3-------------------------------||
E|---5-5-5--3-3--3-3-3---------0-0--0-0-0-------------------||
B|----------------------------------------------------------||

G|----------------------------------------------------------||
D|----------------------------------------------------------||
A|----------------------3-3-3-------------------------------||
E|---5-5-5--3-3--3-3-3---------0-0--0-0-0----5--------------||
B|----------------------------------------------------------||
  development and support by
dmitry ivanov