rock
 
|tablatures   |lyrics   |discussion forums   |more tabs @ XGuitar.com

311 tabs

Push It Away bass tab

'Push it Away' -- Bass Tab
Performed by 311
From the album "Dammit!" on What Have You Records
Music by:  N. Hexum
Lyrics by:  N. Hexum
(c) 1991 Allegiance Music/Hydroponic Music BMI
---------------
Tabbed by: Justin Reynolds (iLLiHeXiLL@aol.com)
The 311 Guitar Archive -- http://chromosome.colorado.edu/311archive/Home.html

Riff 1:
=======

G:------------------
D:------------------
A:------------------
E:-0--0--0--5-5-5-5-


Riff 2:
=======

G:---------------------------------
D:---------------------------------
A:-7-7-7-7-5-5-5-5-4-4-4-4---4---5-
E:---------------------------------


Riff 3:
=======

G:-------------------------------------
D:----------------------0-0-0-0--------
A:-7-7-7-7-10-10-10-10------------8----
E:-----------------------------------6-


End:
====

G:----------------------
D:----------------------
A:-7----5--------5------
E:----------7---------7-


== Last Updated:  November 23, 1997 ==
  development and support by
dmitry ivanov