rock
 
|tablatures   |lyrics   |discussion forums   |more tabs @ XGuitar.com

311 tabs

Peaceful Revolution bass tab

'Peaceful Revolution' -- Bass Tab
Performed by 311
From the album "Dammit!" on What Have You? Records
Music by:  N. Hexum
Lyrics by:  N. Hexum
(c) 1991 Allegiance Music/Hydroponic Music BMI
---------------
Tabbed by: Justin Reynolds (iLLiHeXiLL@aol.com)
The 311 Guitar Archive -- http://chromosome.colorado.edu/311archive/Home.html

Riff 1:
=======
 
G:-------------------------------------
D:-------------------------------------
A:----2-----2-----2--------------------
E:-0-----0----0------5-5--5-5-5-5--5-5-


Riff 2:
=======

G:---------------
D:---------------
A:---------------
E:-3-3---3-3---3-


Riff 3:
=======

G:----------------------------
D:----------------------------
A:---2---2----2---------------
E:-0---0---0----0-5-5-5-5-5-5-


Riff 4:
=======
 
G:--------------------------------------------------
D:--------------------------------------------------
A:----------------5-5--5-5-5-5----------------------
E:-3--3--3--3--------------------3--3--3--3-------2-


== Last Updated:  December 13, 1997 ==
  development and support by
dmitry ivanov