rock
 
|tablatures   |lyrics   |discussion forums   |more tabs @ XGuitar.com

311 tabs

Other Side Of Things bass tab

Title: Other Side of Things
Artist: 311
Album: Evolver

Instrument: 5 String Bass

Tabbed by:  chris.funkhouser@houstonchristianhs.org

E-Mail me with corrections!!


Tuning: Standard (B E A D G)



Intro/Verse: - watch out for the pause, same notes still though


G|----------------------------||
D|----------------------------||
A|----------------------------||
E|----------------------------||
B|---0---3---5---1------------||


Transistion to first chorus:


G|---------------------------------||
D|---------------------------------||
A|---------------------------------||
E|-----5--3--2---------------------||
B|--0------------------------------||

First chorus:


G|---------------------------------||
D|---------------------------------||
A|---------------------------------||
E|-----------0--0---0--------------||
B|---0---0-------------------------||

G|---------------------------------||
D|---------------------------------||
A|---------------------------------||
E|-----------0--0---0--------------||
B|---0---0-------------------------||

G|---------------------------------||
D|---------------------------------||
A|---------------------------------||
E|---------------------------------||
B|-3--2--0--0---0--3--2--0---0---0-||


G|---------------------------------||
D|---------------------------------||
A|---------------------------(4-2)-||
E|---------------------------------||
B|-3--2--0--0---0--3--2--0---------||

( )- last time only


SA chorus:

G|--------------------------------------------||
D|--------------------------------------------||
A|--1---1---1---------4---4---4---------------||
E|-------------2-2-2-------------4-4-4--4-----||
B|--------------------------------------------||

G|--------------------------------------------||
D|--------------------------------------------||
A|--1---1---1---------4---4---4-------4--2----||
E|-------------2-2-2-------------4-4----------||
B|--------------------------------------------||

G|--------------------------------------------||
D|--------------------------------------------||
A|--1---1---1---------4---4---4---------------||
E|-------------2-2-2-------------4-4-4--4-----||
B|--------------------------------------------||

G|--------------------------------------------||
D|--------------------------------------------||
A|--1---1---1---------------------------------||
E|-------------2-2-2-------5--3--2------------||
B|----------------------0---------------------||

Verse:

G|----------------------------||
D|----------------------------||
A|----------------------------||
E|----------------------------||
B|---0---3---5---1------------||


Bridge:

G|-------------------------------------------------------------------||
D|-------------------------------------------------------------------||
A|--/6---4---1h21--1-------------------------------------------------||
E|--------------------2-2-2--2-2-4--2h4h2---2--2---------------------||
B|-------------------------------------------------------------------||

G|-------------------------------------------------------------------||
D|-------------------------------------------------------------------||
A|--/6---4---1h21--1-------------------------------------------------||
E|--------------------2-2-2--2-2-4--2h4h2---2--2---------------------||
B|-------------------------------------------------------------------||

G|-------------------------------------------------------------------||
D|-------------------------------------------------------------------||
A|--/6---4---1h21--1-------------------------------------------------||
E|--------------------2-2-2--2-2-4--2h4h2---2--2---------------------||
B|-------------------------------------------------------------------||

G|-------------------------------------------------------------------||
D|-------------------------------------------------------------------||
A|--/6---4---1h21--1-----------------------4--2----------------------||
E|--------------------2-2-2--2-2-4---2-------------------------------||
B|-------------------------------------------------------------------||

Final SA Chorus/outro:

G|--------------------------------------------||
D|--------------------------------------------||
A|--1---1---1---------4---4---4---------------||
E|-------------2-2-2-------------4-4-4--4-----||
B|--------------------------------------------||

G|--------------------------------------------||
D|--------------------------------------------||
A|--1---1---1---------4---4---4-------4--2----||
E|-------------2-2-2-------------4-4----------||
B|--------------------------------------------||

G|--------------------------------------------||
D|--------------------------------------------||
A|--1---1---1---------4---4---4---------------||
E|-------------2-2-2-------------4-4-4--4-----||
B|--------------------------------------------||

G|--------------------------------------------||
D|--------------------------------------------||
A|--1---1---1---------------------------------||
E|-------------2-2-2-------5--3--2------------||
B|----------------------0---------------------||

G|---------------------------------||
D|---------------------------------||
A|---------------------------------||
E|-----5--3--2---------------------||
B|--0-------------3----------------||
  development and support by
dmitry ivanov