rock
 
|tablatures   |lyrics   |discussion forums   |more tabs @ XGuitar.com

311 tabs

Offbeat Bare-ass bass tab

'Offbeat Bare Ass'
Performed by 311
From the album "Grassroots" on Capricorn Records
Music by:  N. Hexum, C. Sexton & A. Wills
Lyrics by:  N. Hexum & D. Martinez
(c) 1994 Allegiance Music/Hydroponic Music BMI
----------
Tabbed by:  Mike Ulisse (poly@juno.com)
311 Guitar Archive - http://chromosome.colorado.edu/311archive/Home.html


Riff 1 :
========

G:--------------
D:--------------
A:--------------
E:-2--2----3--3-


Riff 2: 
=======

G:------------------
D:----------4-2-4-4-
A:------------------
E:-0-1-2-2----------


Riff 3: 
=======

G:------------------
D:------------------
A:------------------
E:-0-0-0-0--2--3--2-


Riff 4: 
=======

G:--------------------
D:------------------5-
A:-5h7-7-7--5-7-5-7---
E:--------------------


Chorus :
========

G:---------------------
D:---------------------
A:---------------------
E:-3-3--4--4--4--4-4-4-


Riff 5: 
=======

   B5 D5  B5 C5
2:-7--10--7--8-8-8-8-

(I don't know the string this is on so its all you...)


Lyrics/Song Structure:
======================
---> Play Riff 1 (x4)
---> Play Riff 1
---> Play Riff 2
---> Play Riff 3
---> Play Riff 4
---> Play Chorus (x4)
---> Play Riff 1
---> Play Riff 5
---> Play Riff 2
---> Play Chorus (x4)
---> Play Riff 1
---> Play Riff 5
---> Play Riff 2
---> Play Chorus
 

== Last Updated:  October 27, 1996 ==
  development and support by
dmitry ivanov