rock
 
|tablatures   |lyrics   |discussion forums   |more tabs @ XGuitar.com

311 tabs

Nix Hex bass tab

'Nix Hex' -- Bass Tab
Performed by 311
From the album "Music" on Capricorn Records
Music by:  N. Hexum
Lyrics by:  N. Hexum & D. Martinez
(c) 1993 Allegiance Music/Hydroponic Music BMI
---------------
Tabbed by: Justin Reynolds (illihexill@aol.com)
The 311 Guitar Archive -- http://chromosome.colorado.edu/311archive/


Riff 1:
=======

G:------------------------------------------------
D:------------------------------------------------
A:---------------------1------------------1-1-----
E:-3---1-3----3-1----3---1-3----1-0---------------
B:---3------3------3---------3-------3--1-----1-0-

Riff 2:
=======

G:--------
D:--------
A:--------
E:--------
B:-4-4--2-

Riff 3:
=======

G:----------
D:----------
A:----------
E:-3--3-3-3-
B:----------

Little slap fill:
==================

G:-----------------
D:--------5xh6xp5x-
A:-3xxx------------
E:-----------------
B:-----------------
  development and support by
dmitry ivanov