rock
 
|tablatures   |lyrics   |discussion forums   |more tabs @ XGuitar.com

311 tabs

Misdirected Hostility bass tab

'Misdirected Hostility' -- Bass Tab
Performed by 311
From the album "311" on Capricorn Records
Music by:  N. Hexum
Lyrics by:  N. Hexum and SA Martinez
(c) 1995 Capricorn Records
---------------
Tabbed by: Jeremy Daw (summit@rideau.net)
The 311 Guitar Archive -- http://chromosome.colorado.edu/311archive/Home.html


Riff 1:
=======

G:---------
D:---------
A:-5-----3-
E:----5----
B:---------


Riff 2:
=======

G:------
D:------
A:-5///-
E:------
B:------


Riff 3:
=======

G:-------------------
D:-------------------
A:-x-1-x-1-1---1-3-1-
E:-----------3-------
B:-------------------


Riff 4:
=======

G:--------------------------------------
D:------------10///--10-9-10-11-10-9-10-
A:--------------------------------------
E:-0--1-0-1-1---------------------------
B:--------------------------------------

G:---------------------------------
D:---------------------------------
A:---------------------------------
E:-0--1-0-1-1--\\\8--8-7-8---8-7-8-
B:---------------------------------


Riff 5:
=======

G:-------------
D:-------------
A:-------------
E:-1-1-1-1-1-1-
B:-------------


Last Note:
==========

G:-------
D:-------
A:-------
E:-10///-
B:-------


== Last Updated:  November 23, 1997 ==
  development and support by
dmitry ivanov