rock
 
|tablatures   |lyrics   |discussion forums   |more tabs @ XGuitar.com

311 tabs

Love Song guitar tab

Title: Love Song
Artist: 311
Album: 50 First Dates Soundtrack
Tabbed By: danekthekapo
Tuning: Standard (EADGBE)
Effects: Slight Distortion with Wah and Light Reverb
throughout song

Symbols: / = Slide
         h = Hammer On

Intro:

E|--7--|
B|--5--|
G|--5--|
D|--0--|
A|-----|
E|-----|


E|--7-------------------------------------------------|
B|--5-------------------------------------------------|
G|--5-5--7-7/9--7--9--7/5-----5--7-7/9--7--9--7/5-----|
D|--0---------------------7-----------------------7---|
A|----------------------------------------------------|
E|----------------------------------------------------|

E|----------------------------------------------------|
B|----------------------------------------------------|
G|--5--7-7/9--7--9--7/5-----5--7-7/9--7--9--7/5-------|
D|----------------------7-----------------------7-----|
A|----------------------------------------------------|
E|----------------------------------------------------|


Verse 1:

E|--7-------------------------------------------------|
B|--5-------------------------------------------------|
G|--5-------------------------------------------------|
D|--0-------------------------------------------------|
A|----------------------------------------------------|
E|----------------------------------------------------| 
         Whenever I'm alone with you, you make me feel
 
E|------------------------7---------------------------|
B|------------------------5---------------------------|
G|------------------------5---------------------------|
D|------------------------0---------------------------|
A|----------------------------------------------------|
E|----------------------------------------------------| 
  like I am home again.        Whenever I'm alone with 

E|----------------------------------------------------|
B|----------------------------------------------------|
G|----------------------------------------------------|
D|----------------------------------------------------|
A|----------------------------------------------------|
E|----------------------------------------------------|
  you, you make me feel like I am whole again.


Bridge:

E|--5h7/8-8-7-5-7-7-5-3-0---0-0-------------------|
B|------------------------------------------------|
G|------------------------------------------------|
D|------------------------------------------------|  X2
A|------------------------------------------------|
E|------------------------------------------------|


E|--5h7/8-8-7-5-7-7-5-3-0---0-0-----------------------|
B|--------------------------------3---1-111111--------|
G|----------------------------------------------------|
D|----------------------------------------------------|  
A|----------------------------------------------------|
E|----------------------------------------------------|


Verse 2:

E|--7-------------------------------------------------|
B|--5-------------------------------------------------|
G|--5-------------------------------------------------|
D|--0-------------------------------------------------|
A|----------------------------------------------------|
E|----------------------------------------------------| 
         Whenever I'm alone with you, you make me feel
 
E|------------------------7---------------------------|
B|------------------------5---------------------------|
G|------------------------5---------------------------|
D|------------------------0---------------------------|
A|----------------------------------------------------|
E|----------------------------------------------------| 
  like I am young again.        Whenever I'm alone with 

E|----------------------------------------------------|
B|----------------------------------------------------|
G|----------------------------------------------------|
D|----------------------------------------------------|
A|----------------------------------------------------|
E|----------------------------------------------------|
  you, you make me feel like I am fun again.


Chorus:

E|--1---1-1--1--3---3-3--3---5---5--------------------|
B|--1---1-1--1--3---3-3--3---5---5--------------------|
G|--2---2-2--2--4---4-4--4---5---5----7--5----4---2---|
D|--3---3-3--3--5---5-5--5---7---7--------------------|
A|----------------------------------------------------|
E|----------------------------------------------------|
      However  far  away____ I will  always love you

E|--1---1-1--1--3---3-3--3---5---5--------------------|
B|--1---1-1--1--3---3-3--3---5---5--------------------|
G|--2---2-2--2--4---4-4--4---5---5----7--5----4---2---|
D|--3---3-3--3--5---5-5--5---7---7--------------------|
A|----------------------------------------------------|
E|----------------------------------------------------|
      However  long I stay__ I will  always love you

E|--1---1-1--1--3---3-3--3---5---5--------------------|
B|--1---1-1--1--3---3-3--3---5---5--------------------|
G|--2---2-2--2--4---4-4--4---5---5----7--5----4---2---|
D|--3---3-3--3--5---5-5--5---7---7--------------------|
A|----------------------------------------------------|
E|----------------------------------------------------|
      Whatever words I say__ I will  always love you

E|--1---1-1--1--3---3-3--3---5---5--------------------|
B|--1---1-1--1--3---3-3--3---5---5--------------------|
G|--2---2-2--2--4---4-4--4---5---5--------------------|
D|--3---3-3--3--5---5-5--5---7---7--------------------|
A|----------------------------------------------------|
E|----------------------------------------------------|
     I will  al__ways_ love you_____


Repeat Bridge


Solo:

E|--7-7-7-7------7-7-7-7------7-7-7-7------7-7-8-10---|
B|----------8-8---------8--8----------8-8-------------|
G|----------------------------------------------------|
D|----------------------------------------------------|
A|----------------------------------------------------|
E|----------------------------------------------------|

E|----------------------------------------------------|
B|--8-8--8/10-10-10--5-3-1-3-1--1-1-3-1-0--0-0--------|
G|---------------------------------------------2------|
D|----------------------------------------------------|
A|----------------------------------------------------|
E|----------------------------------------------------|


Repeat Verse:

Whenever I'm alone with you, you make me feel like I am
free again.

Whenever I'm alone with you, you make me feel like I am
clean again.


Repeat Chorus and hold last chord.
  development and support by
dmitry ivanov