rock
 
|tablatures   |lyrics   |discussion forums   |more tabs @ XGuitar.com

311 tabs

Love Song bass tab

Love Song - 311
Tabbed by - lardlad76
Standard tuning 


Intro/verse
G----------------------------------------------------------------------
D----------------------------------------------------------------------
A--------23---------3--------320--------333----------------------------x14
E---5-5-5---3333-55-----1-1-------0-000--------------------------------

Chorus
G----------------------------------------------------------------------
D----------------------------------------------------------------------
A-----------------------------------3-33/7777--------------------------x4
E---1-1-111---3-33-3333---5-5-555--------------------------------------

verse/guitar solo
G----------------------------------------------------------------------
D----------------------------------------------------------------------
A--------23---------3--------320--------333----------------------------x8
E---5-5-5---3333-55-----1-1-------0-000--------------------------------

Chorus
G----------------------------------------------------------------------
D----------------------------------------------------------------------
A-----------------------------------3-33/7777--------------------------x4
E---1-1-111---3-33-3333---5-5-555--------------------------------------


End on:
G---------------------------------------
D---------------------------------------
A---------------------------------------x1
E-----------5~--------------------------

I figured this out by ear along with the music video and I watched the bassist play this song so I'm pretty sure it is correct. Its not too hard so enjoy.
  development and support by
dmitry ivanov