rock
 
|tablatures   |lyrics   |discussion forums   |more tabs @ XGuitar.com

311 tabs

Lose bass tab

'Lose'  Bass Tab
Performed by 311
>From the album "Grassroots" on Capricorn Records
Music by:  N. Hexum
Lyrics by:  N. Hexum
(c) 1994 Allegiance Music/Hydroponic Music BMI
---------------
Tabbed by: Derek Bourque (derekbourque@hotmail.com)
The 311 Guitar Archive - http://chromosome.colorado.edu/311archive/

This is my first try at tabbing out a song. I think it's pretty close but I may
be off on a few parts. If you have any questions or corrections, please e-mail 
me. Thanks and enjoy.


Riff 1:

G:-------------------------------------------------
D:-------------------------------------------------
A:-5--0-3-5-5-5----5-7-5-7-5-----------------------
E:---------------------------6-6-8-8-8-6--8-6-6-5--


Riff 2:

G:-------------------------------------------------------------
D:-------------------------------------------------------------
A:-6-6--6/8-8--8/10-10--12-12-10/------------------------------
E:---------------------------------2-2--2/4-4--4/6-6--8-6-4-4--


Riff 2a:

G:-------------------------------------------------------------
D:-------------------------------------------------------------
A:-6-----------------------------------------------------------
E:---------------------------------2-------------6-6--8-6-4-4--


Riff 3:

G:--------------------------------------------
D:--------------------------------------------
A:-5--0-3-5-5-5----5-7-5-7-5-5-5-7-5-5-7------
E:---------------------------------------5-5--


Riff 4a:

G:---------------------------------------------------------------------------
D:------------------------------------------5-5-5-----------------5-5-5------
A:-------3-3------------3-3------------5-5--------5-5--------5-5--------5-5--
E:-1-1-1-----1-1--1-1-1-----1-1--3-3-3-----------------3-3-3-----------------


Riff 4b:

G:------------------------------------------------------------------------------
D:------------------------------------------5-5-5------------------5-5-5--------
A:-------3-3------------3-3------------5-5--------5-5--------5-5-5-------5-5-5--
E:-1-1-1-----1-1--1-1-1-----1-1--3-3-3-----------------3-3-3--------------------


Riff 5:

G:---------------------------------------------------------------------
D:---------------------------------------------------------------------
A:---------------------------------------------------------------------
E:-5--5--5--5--5--5--6--6--6--6--6--6--5--5--5--5--5--5--6--6--6--6-5--


Riff 6:

G:-----------------------------------------------------------------
D:-----------------------------------------------------------------
A:-0-3-5---0-3-5--0-1-1---0-1-1----0-3-5---0-3-5--0-1-1---0-1-0-1--
E:-----------------------------------------------------------------


Song Structure:

Riff 1 x2
Riff 2
Riff 3
Riff 1 x4
Riff 2
Riff 3
Riff 1 x2
Riff 2
Riff 3
Riff 4a
Riff 4b
Riff 5
Riff 1 x2
Riff 2
Riff 3
Riff 6
Riff 2
Riff 3
Riff 1 x2
Riff 2a
Riff 3
Riff 4a
Riff 4b
Riff 5
  development and support by
dmitry ivanov