rock
 
|tablatures   |lyrics   |discussion forums   |more tabs @ XGuitar.com

311 tabs

Long For The Flowers guitar tab

311
Don’t Tread on Me
Long For The Flowers
Tabbed by Earwood
8.25.05

Intro/Verse
|------------------------------------|
|------------------------------------|
|------------------------------------|
|-3-----(7)-----5------7------5------|
|-3-<5x>-5-<5x>-5-<5x>-7-<3x>-5-<2x>-|
|-1------5------3------5------3------|

Chorus
|------------------------------------5-6-5------------|
|----<5>---<5>---<5>-----------5-6-8-------8-6-5------|
|-<7>---<5>---<5>----------5-7-------------------7-5--| 2x
|--------------------5-7-8----------------------------|
|-----------------------------------------------------|
|-----------------------------------------------------|
after the 2nd time Tim plays with that scale a little through the verse

Bridge/Outro
|------------------------------------------------|
|------------------------------------------------|
|------------------------------------------------|
|-8-------7-------8-------7-7--6-6--5-5--4-4--3~-|
|-8-<10x>-7-<10x>-8-<10x>-7-7--6-6--5-5--4-4--3~-|
|-6-------5-------6-------5-5--4-4--3-3--2-2--1~-|

Solo coming…
  development and support by
dmitry ivanov