rock
 
|tablatures   |lyrics   |discussion forums   |more tabs @ XGuitar.com

311 tabs

Long For The Flowers bass tab

G:----------------------------------------------|
D:----------------------------------------------|
A:-----------5-5-5-5-5--------------------------| x4
E:-1-1-1-1-1-----------3-3-3-3-3-5-5-5-3-3------|
B:----------------------------------------------|


G:----------------------------------------------|
D:----------------------------------------------|
A:----------------------------------------------|  x2
E:-5-5-5-5-5-5-5-0h5-5--3-3-3-3-3-3-3-0h3-3-----|
B:----------------------------------------------|


G:----------------------------------------------|
D:----------------------------------------------|
A:-----------5-5-5-5-5--------------------------|  x4
E:-1-1-1-1-1-----------3-3-3-3-3-5-5-5-3-3------|
B:----------------------------------------------|


G:----------------------------------------------|
D:----------------------------------------------|
A:----------------------------------------------|  x2
E:-5-5-5-5-5-5-5-0h5-5--3-3-3-3-3-3-3-0h3-3-----|
B:----------------------------------------------|


G:----------------------------------------------|
D:----------------------------------------------|
A:-----------5-5-5-5-5--------------------------|  x4
E:-1-1-1-1-1-----------3-3-3-3-3-5-5-5-3-3------|
B:----------------------------------------------|


G:----------------------------------------------|
D:----------------------------------------------|
A:----------------------------------------------|
E:-6-6-6-6-6-6-6--6-6-6---5-5-5-5-5-5-5-0h5-0h5-|
B:----------------------------------------------|


G:----------------------------------------------|
D:----------------------------------------------|
A:----------------------------------------------|
E:-6-6-6-6-6-6-6--6-6-6----5---4---3---2--------|
B:----------------------------------------------|

G:----------------------------------------------|
D:----------------------------------------------|
A:----------------------------------------------|  x4
E:-1-1-1-1-1-----------3-3-3-3-3-5-5-5-3-3------|
B:-----------3-3-3-3-3--------------------------|

G:----------------------------------------------|
D:----------------------------------------------|
A:-----------5-5-5-5-5--------------------------|  x4
E:-1-1-1-1-1-----------3-3-3-3-3-5-5-5-3-3------|
B:----------------------------------------------|


G:----------------------------------------------|
D:----------------------------------------------|
A:----------------------------------------------|
E:-6-6-6-6-6-6-6--6-6-6---5-5-5-5-5-5-5-0h5-0h5-|
B:----------------------------------------------|


G:----------------------------------------------|
D:----------------------------------------------|
A:----------------------------------------------|
E:-6-6-6-6-6-6-6--6-6-6----5---4---3---2----1---|
B:----------------------------------------------|
  development and support by
dmitry ivanov