rock
 
|tablatures   |lyrics   |discussion forums   |more tabs @ XGuitar.com

311 tabs

Livin' & Rockin' bass tab

'Livin & Rockin' - Bass Tab
Performed by 311
From the album "Soundsystem" on Capricorn Records
Music by:  T. Mahoney
Lyrics by:  N. Hexum & D. Martinez
(c) 1999 Hydroponic Music BMI
---------------
Tabbed by: Kevin Clark (Scruff311@aol.com)
The 311 Guitar Archive -- http://chromosome.colorado.edu/311archive/


Riff 1 ("Fire, Is my method of destruction..."):
================================================

G:---------------------------------
D:---------------------------------
A:-------------555-----------------
E:-000305060530----000305060530653-
B:---------------------------------

Riff 2 ("I'm at ease when I feel there's a breeze..."):
=======================================================

G:-----------------------------------------
D:------0h4--22-2-4------------------------
A:-----------------4--2-0--0-2h0-2h3-2h0---
E:-2-2-----------------------------------2-
B:-----------------------------------------

Riff 3 (Chorus; "Can't nobody do it like 311..."):
==================================================

G:---------------------------------------------------
D:---------------------------------------------------
A:------2------------------------2-------------------
E:-0h2h4--4h2h0-0-0h2-------0h2h4--4h2h0-0h2-0h2h4h2-
B:--------------------3-3h2--------------------------

Riff 4:
=======

G:--------------
D:--------------
A:--------------
E:-0-0----0-0-0-
B:--------------

Riff 5 (Outro):
===============

G:----------
D:----------
A:----------
E:-00020242-
B:----------


Song Structure:
===============
Riff 1 (4x)
Riff 2 (4x)
Riff 3 (4x)
Riff 1 (4x)
Riff 2 (4x)
Riff 3 (4x)
Riff 4 (4x)
Riff 5 (8x)
  development and support by
dmitry ivanov