rock
 
|tablatures   |lyrics   |discussion forums   |more tabs @ XGuitar.com

311 tabs

Life's Not a Race bass tab

song:life's not a race

by:311

tabbed by:p-nutt

comments:no one has tabbed this song so i went ahead and tabbed it out
its really ez once you get the rythem of the song.

riff1 when nick sings
g:--------------|
d:--------------|
a:--------------|
e:5-555-5-5-5-55|
b:--------------|x12

when s.a.sings
g:----------------|
d:----------------|
a:-----------7-5-7|
e:4-4-77-6-6------|
b:----------------|x4

when nick sings
g:----------------|
d:----------------|
a:----------------|
e:2-02-2----------|
b:-------0-0-4-5-4|

g:-----------|
d:--------3--|
a:--5---3----|
e:3---3-----0|
b:-----------|sometimes switch down to the b,e,a string.
  development and support by
dmitry ivanov