rock
 
|tablatures   |lyrics   |discussion forums   |more tabs @ XGuitar.com

311 tabs

Let The Cards Fall guitar tab

'Let the Cards Fall'
Performed by 311
From the album/video "Enlarged to Show Detail" on Capricorn Records
Music by:  N. Hexum
Lyrics by:  N. Hexum
(c) 1995 Allegiance Music/Hydroponic Music BMI
---------------
Tabbed by: Michael Slusarz (slusarz@ucsu.colorado.edu)
           BryGuy11 (BryGuy11@aol.com)
Additions/Corrections by: Nick Buss (tbuss@vtcom3.vantek.net)
Lyric help by: Pat Macdonald (pamacdona@dns.brownell.edu)
               Unknown (Uadar@aol.com)
The 311 Guitar Archive -- http://chromosome.colorado.edu/311archive/Home.html


Intro:
======
   N.C.
1:-------
2:-10---- Just alternate between these two frets until
3:----11- the actual solo starts.
4:-------
5:-------
6:-------

   N.C.
1:-----------------------5---------------------------5----
2:-8-8p7-------8-8p7--------7--8-8p7--5-----8-8p7-------7-
3:--------5-5---------5------------------5--------5-------
4:--------------------------------------------------------
5:--------------------------------------------------------
6:--------------------------------------------------------

   N.C.
1:------------------------------------------------
2:-///13--13--13---13-15-12--12h13p12-12h13p12-10-
3:------------------------------------------------
4:------------------------------------------------
5:------------------------------------------------
6:------------------------------------------------

   N.C.
1:------------------------------------------------------------
2:------------------------------------------------------------
3:-12-11-9-12-11-9-11---12-11-9-11--11-9----------------------
4:----------------------------------------10--10--10h12p10----
5:---------------------------------------------------------12-
6:------------------------------------------------------------

   N.C.                                       Asus2    N.C.
1:----------------------------------------------------------------
2:--------------------------------------------10-10-10------------
3:------------------------5-------9-10----12---9--9--9----12-11-9-
4:--------------------8-------8--------10-----12-12-12-12---------
5:-12--10--9--10-9------------------------------------------------
6:----------------------------------------------------------------

   N.C.
1:-------------------------------------------------------------------
2:------10-------//12--14--15\\----------------//15--13-12--12h13p12-
3:----9----9--------------------12-14-12-14-12-----------------------
4:-12--------12------------------------------------------------------
5:-------------------------------------------------------------------
6:-------------------------------------------------------------------

   N.C.
1:------------------------
2:-10h12p10-8-------------
3:------------12-11h12p11-
4:------------------------
5:------------------------
6:------------------------


Main Riff:
==========
[Guitar 1:]
   N.C.
1:-----------------------------------------------------------------------
2:-----------------------------------------------------------------------
3:---2-5--2----2-5-2-0-2-------------------------------------------------
4:-4---------4------------4---4-4-5-4---2-2p0---2-3-2-0--2-0-2-0-2-3-2-0-
5:-----------------------------------------------------------------------
6:-----------------------------------------------------------------------

   N.C.
1:------------------------------------------------------------------------
2:------------------------------------------------------------------------
3:------------------------------------------------------------------------
4:-2-0-2-0-5-3-2-3-2-0------------------------------------------------2---
5:----------------------5p4--2------0----0-0---0---3-0---0---0----------5-
6:------------------------------3-3---3------3---3-----3---3----3--2------

[Guitar 2:]
   (D5)
1:------------------------------------------------------
2:------------------------------------------------------
3:--------7--------------------------7------------------
4:------------------------------------------------------
5:-5-5--5---5--5--5--5-7-5-7--5-5--5---5--5--5--5-7-5-7-
6:------------------------------------------------------

   (D5)
1:------------------------------------------------------
2:------------------------------------------------------
3:--------7--------------------------7------------------
4:------------------------------------------------------
5:-5-5--5---5--5--5--5-7-5-7--5-5--5---5--5--5--5-7-5-7-
6:------------------------------------------------------

   (Bb5)
1:------------------------------------------------------
2:------------------------------------------------------
3:------------------------------------------------------
4:--------8----------------8---------8------------------
5:---------------------5-8--------------------------5-8-
6:-6-6--6---6--6--6--6--------6-6--6---6--6--6--6-6-----

   (D5)
1:------------------------------------------------------
2:------------------------------------------------------
3:--------7--------------------------7------------------
4:------------------------------------------------------
5:-5-5--5---5--5--5--5-7-5-7--5-5--5---5--5--5--5-7-5-7-
6:------------------------------------------------------

   N.C.
1:------------------------------------------------------------
2:------------------------------------------------------------
3:--------------------------4---------------------------------
4:-------------------4-4--4---4-------------------------5-----
5:-5-4-2-2--2-5-5--5------------5---------2-2--2-5-5--5---5---
6:---------------------------------3-3--3-------------------7-

   Am7                  Csus2/G (D5)
1:-5--x-x--5--x-x--5-x--3---------------------------------
2:-5--x-x--5--x-x--5-x--3---------------------------------
3:-5--x-x--5--x-x--5-x--5--------------7------------------
4:-5--x-x--5--x-x--5-x--5---------------------------------
5:-7-------7-------7----3-------5-5--5---5--5--5--5-7-5-7-
6:-5-------5-------5----3---------------------------------

   (D5)
1:---------------------------
2:---------------------------
3:--------7------------------
4:---------------------------
5:-5-5--5---5--5--5--5-7-5-7-
6:---------------------------


Ending a:
=========
   D5/A C5/G D5/A C5/G D5/A C5/G D5/A C5/G
1:--------------------------------------
2:--------------------------------------
3:-7----5----7----5----7----5----7----5-
4:-7----5----7----5----7----5----7----5-
5:-5----3----5----3----5----3----5----3-
6:-5----3----5----3----5----3----5----3-

Ending b:
=========
   D#5/Bb  C#5/Ab D5/B
1:------------------
2:------------------
3:-8-8-8-8----6---7-
4:-8-8-8-8----6---7-
5:-6-6-6-6----4---5-
6:-6-6-6-6----4---5-


Lyrics/Song Structure:
======================
---> Play Intro
---> Play Main Riff (x1)
---> Play Main Riff over:
   Let the cards fall, and fall where they may
   All I can do, all I can say
   Gotta learn to trust my instincts
   And surrender, let my songs sing itself
   I am they who admit what they don't know
   All my friends excitable, they'll tell you so
---> Play Ending a over:
   So let the cards fall, and fall where they may
   In checkin' on our conviction dick
   We run the shit our own way
   Do as you will, Do as you wish
   Follow your bliss on every day
   Never ask for an advantage
   Let the cards fall where they may
---> Play Ending b (x4)
---> Play Ending a over:
   So let the cards fall, and fall where they please
   Ask me while we're at it, I do it with ease
   Taking up space is the people who would like to hold you back
   But in reality, the majority don't really give jack
---> Play Ending b (x4)
---> End on C5/G (3355xx)
  development and support by
dmitry ivanov