rock
 
|tablatures   |lyrics   |discussion forums   |more tabs @ XGuitar.com

311 tabs

Leaving Babylon guitar tab

'Leaving Babylon'
Performed by 311
From the album "Soundsysten" on Capricorn Records
Music by:  ??
Lyrics by:  ??
(c) ??
---------------
Tabbed by: Gourdin Sirles (matrixg182@hotmail.com)
Additions/Corrections by: Lord of the Rings (angrist@webtv.net)
The 311 Guitar Archive -- http://bigworm.colorado.edu/311archive/


Intro (Palm Muted):
===================
   N.C.
e:-------------------------------------------
B:-------------------------------------------
D:-------------------------------------------
G:-3-0-3-0---------3--5--3-0-3-0-------------
A:---------3-0-------------------3-0---------
E:-------------1-3-------------------1-3-3-3-

Verse:
======
   F5        G5         A5
e:-1-1--1-1--3-3--3-3---5-5-
B:-1-1--1-1--3-3--3-3---5-5-
D:--------------------------
G:--------------------------
A:--------------------------
E:--------------------------

Fill 1:
=======
   N.C.
e:------------------
B:------------------
D:------------------
G:-0-3-0------------
A:-------3----------
E:----------3--3--3-


Lyrics/Song Structure:
======================
Well I say
Leaving this Babylon
I said leaving that this Babylon
Leaving this Babylon
Will not be too long
Will not be too long
I said my people are starving
But your run is runnin'
I said my people are starvin'
But your run is runnin'

I said my dollar dollar duck down real low
You ain't got nothing to show
Gonna step right through the door
Not gonna come back no more
The politician lie
The mommatistic cry
And nothing ever gonna change
My father just designed
My sister just aligned
And I ain't got nothin' to claim, no

Well I say
Well I say
Nothing will go away
Nothing should leave today, yea, yea
  development and support by
dmitry ivanov