rock
 
|tablatures   |lyrics   |discussion forums   |more tabs @ XGuitar.com

311 tabs

Leaving Babylon bass tab

Song:Leaving Babylon

Artist:311

Tabber:T4-TURBO


Riff 1:
g:------------------------------------------|
d:3---3-----------3-5---3---3---------------|
a:--5---5-3---------------5---5-3-----------|
e:----------5-1-3-----------------5-1-3--3-3|
b:------------------------------------------|


Riff 2:
g:--------------------------------------|
d:--3-------------------3---------------|
a:5---5-3-------------5---5-3-----------|
e:--------5----1-3-3----------5----1-3-3|
b:--------------------------------------|


Riff 3:
g:------------------------------------|
d:------------------------------------|
a:------------------------------------|
e:1----1---3--1-3-3---1-1---1-3--1-3-3|
b:---3---3----------------3-----------|
  development and support by
dmitry ivanov